Children Of Bodom - Living Dead Beat tab

---------------------------------------------------------------------------
			     Living Dead Beat - Children Of Bodom
---------------------------------------------------------------------------
Tabbed by:Josh
Email:

Tuning: Drop C DAFCGC
Synthesiser First 

Guitar
D|--------------------------------|
A|--------------------------------|
F|--------------------------------|
C|--------------------------------|
G|-0-0--0-0--0-0-0-0--0-0-0-0-0\--|
C|-0-0--0-0--0-0-0-0--0-0-0-0-0\--|
pm . .  . .  . . . .  . . . . .  

D|--------------------------------------------|
A|--------------------------------------------|
F|--------------------------------------------|
C|-------------------------3--------5---------|
G|-------------------------1-1-1-1--3-3-3-3---|
C|-0-0-0-0--0--0-0-0-0-0-0--------------------| x3
pm . . . .  .  . . . . . . 

Main Riff
D|---------------------------------------------|
A|---------------------------------------------|
F|---------------------------------------------|
C|---------------2-3-------2-----------------3-|
G|---5-3---3-5-0-----0-3-5------5-3---3-5-7----|
C|-0-----7--------------------0-----7----------| 
     |Play 5 times|       |play once|

Next Part
D|----------------------------------------------------------|
A|----------------------------------------------------6-6-6-|
F|----------------------------------------------------x-x-x-|
C|----------------------------------------------------7-7-7-|
G|----------------------------------------------------5-5-5-|
C|-0-0-0-2b5r-0-0-0-0-2b5r-0-0-0-0-0-0-2b5r-0-0-0-1br-------|

D|--------------|
A|------6-6-6-6-|
F|------x-x-x-x-|
C|------7-7-7-7-|
G|-0-0--5-5-5-5-|
C|-0-0----------|
pm . . 


Next Part
D|-------------------------------------------------|
A|-------------------------------------------------|
F|-------------------------------------------------|
C|--------------------------2-2-2-2--2-2-2-2-3-3-3-|
G|-------------------------------------------------|
C|-0-0-0-0-2b5r-0-0-0-0-0-0------------------------|
pm . . . .      . . . . . .
D|-----------------------------------------------------------|
A|-----------------------------------------------------------|
F|-----------------------------------------------------------|
C|--------------------------0-0-0-0--0-0-0-0-0-0-1-1-1-1-1-1-|
G|-----------------------------------------------------------|
C|-0-0-0-0-2b5r-0-0-0-0-0-0----------------------------------|
pm . . . .      . . . . . .

D|----------------------------------------------------------|
A|----------------------------------------------------6-6-6-|
F|----------------------------------------------------x-x-x-|
C|----------------------------------------------------7-7-7-|
G|----------------------------------------------------5-5-5-|
C|-0-0-0-2b5r-0-0-0-0-2b5r-0-0-0-0-0-0-2b5r-0-0-0-1br-------|
pm . . .      . . . .      . . . . . .      . . . 


D|--------------------------------------------------|
A|--------------------------------------------------|
F|--------------------------------------------------|
C|----------------------------------------------2-3-|
G|----------------------------0-0-0-0-0-1-1-3-5-----|
C|-0-0-0-0-0-2b5r-0-0-0-0-0-0-----------------------|
pm . . . . .      . . . . . . 

Back To Main Riff
D|---------------------------------------------|
A|---------------------------------------------|
F|---------------------------------------------|
C|---------------2-3-------2-----------------3-|
G|---5-3---3-5-0-----0-3-5------5-3---3-5-7----|
C|-0-----7--------------------0-----7----------| 

Pre Chorus

D|-6-5--------------------------------------------|
A|-6-5----------------------------------------6-6-|
F|-3-2----------------------------------------7-7-|
C|-3-2----------------------------------------7-7-|
G|--------------------------------------------5-5-|
C|------------------------------------------------|

D|------------------------------------|
A|--------------------------------6-6-|
F|-3---2--------------------------x-x-|
C|-3---2--------------------------7-7-|
G|-1---0------<5>-----<5>---------5-5-|
C|--------0-0-----0-0-----0-0-0-0-----|

D|-----------------|
A|-8-11--------6-6-|
F|-7-10--------7-7-|
C|-5-8---------7-7-|
G|-5-8---------5-5-|
C|-----------------|

D|------------------------------------|
A|--------------------------------6-6-|
F|--------------------------------x-x-|
C|-5--8---------------------------7-7-|
G|-5--8------7h8-----10p8---------5-5-|
C|-5--8--0-0-----0-0------0-0-0-0-----|


D|-----------------------------------|
A|-------------------------------6-6-|
F|-------------------------------x-x-|
C|-5--8--------------------------7-7-|
G|-5--8------7h8-----7h8---------5-5-|
C|-5--8--0-0-----0-0-----0-0-0-0-----|

D|-8-7----------------------------------------------------|
A|-8-7------------------------------------------------7-7-|
F|-5-4------------------------------------------------8-8-|
C|-5-4------------------------------------------------8-8-|
G|----------------------------------------------------6-6-|
C|--------------------------------------------------------|

D|----15-14-15-12-15-10-15-/17-14-------19-14-------|
A|-13-----------------------------15----------15----|
F|-----------------------------------16----------16-|
C|--------------------------------------------------|
G|--------------------------------------------------|
C|--------------------------------------------------|


D|-----------------|
A|-----------------|
F|-8--5---7-7--4-4-|
C|-5--5---7-7--4-4-|
G|-5--3---5-5--2-2-|
C|-----------------|

Chorus (play this for all choruses)

D|-12-10-12-----------------------------------12-12-7-7-8-8-10-15-15-10-|
A|-12-10-12-----------------------------------12-12-7-7-8-8-10-15-15-10-|
F|-9--7--9--9-9-x-x-7-x-x-9-9-x-x-------------9--9--4-4-5-5-7--12-12-7--|
C|-9--7--9--9-9-x-x-7-x-x-9-9-x-x-------0-----9--9--4-4-5-5-7--12-12-7--|
G|----------7-7-x-x-5-x-x-7-7-x-x---0-2---2-0---------------------------|
C|--------------------------------5-------------------------------------|


Interlude
D|-12-7-0-10-12-0-0-10-12-0-19-0-17-14----14-|
A|-------------------------------------15----|
F|-------------------------------------------|
C|-------------------------------------------|
G|-------------------------------------------|
C|-------------------------------------------|x2

Then play
D|-12-10-0-14-12-10-14-12-14-12-14-17-12-17-14-12-10-14-|
A|------------------------------------------------------|
F|------------------------------------------------------|
C|------------------------------------------------------|
G|------------------------------------------------------|
Tap to rate this tab
 
# A B C D E F G H I J K L M N O P Q R S T U V W X Y Z