Song name
# A B C D E F G H I J K L M N O P Q R S T U V W X Y Z

Children Of Bodom - Mask Of Sanity tab

Children Of Bodom- Mask Of Sanity
Album-Follow The Reaper
Tuning-DGCFAD.
Tabbed by M.S.K.

Alrite, this is my second time trying to ace tabs now, there were a lot of tabs 
with the wrong leads so I learned 'em all by ear, I'm sure they're played this way. 

Palm mute(p.m)= |---------| OR ||
Bend= b
Bend release= br
Slide= s
Vibrato= ~
Pinch Harmonice= h 
Tapping = t

      Intro.
D|----------------------------------------|
A|----------------------------------------|
F|999999999999-7777-99999999999-1212------|
C|999999999999-7777-99999999999-1212-1212-|
G|777777777777-5555-77777777777-1010-1212-|
D|-----------------------------------1010-|
             

D|----------------------------------------|
A|----------------------------------------|
F|999999999999-7777-99999999999-1212------|
C|999999999999-7777-99999999999-1212-1212-|
G|777777777777-5555-77777777777-1010-1212-|
D|-----------------------------------1010-|
             
      Build Up.
D|-------------------------------------------------|
A|-------------------------------15-15-------------|
F|-------16-16-14-14-16-16-------------14-16-14----|   
C|-14-14-------------------17-17----------------17-|     Played 4 times
G|-------------------------------------------------|
D|-------------------------------------------------|

This is that last portion of the build up.                 
D|-----------|
A|-----------|
F|-----------|
C|-----------|
G|---14s-----|
D|---15s-----|

      Main Riff.
D|-----------------------------------------|
A|-----------------------------------------|
F|-----------------------------------------|
C|-9--3---5---7-5--9--5s7--12s9------------|
G|-7--1---3---5-3--7--3s5--10s7------------|
D|--00-000-000------00---00-----0000-000-0-|
    || |-| |-|      ||   ||     |---------|             

D|-----------------------|
A|-----------------------|
F|-------------------4---|
C|-9--3---5---7-5-4------|
G|-7--1---3---5-3-2------|
D|--00-000-000-----------|
    || |-| |-|       h~             

        Verse.
D|-----------------------------------------|
A|-----------------------------------------|
F|-----------------------------------------|
C|-9--3---5---7-5--9--5s7--12s9------------|
G|-7--1---3---5-3--7--3s5--10s7------------|
D|--00-000-000------00---00-----0000-000000|
    || |-| |-|      ||   ||     |---------|             
                 
D|------------------------------------------|
A|------------------------------------------|
F|----------------------------------5-7-9---|
C|-9--------------------------------5-7-9---|
G|-7-7777777777777777777777777777---3-5-7---|
D|------------------------------------------|
     |---------------------------|                

D|-----------------------------------------|
A|-----------------------------------------|
F|-----------------------------------------|
C|-9--3---5---7-5--9--5s7--12s9------------|
G|-7--1---3---5-3--7--3s5--10s7------------|
D|--00-000-000------00---00-----0000-000000|
    || |-| |-|      ||   ||     |---------|             
                 
D|----------------------------------------------|
A|----------------------------------------------|
F|----------------------------------5-7-9-------|
C|-9--------------------------------5-7-9---454-|
G|-7-7777777777777777777777777777---3-5-7--7---7|
D|----------------------------------------------|
     |---------------------------|                

      Interlude.    
D|---------------------------|
A|---------------------------|
F|5---7---9------------------|
C|5---5---9------------------|
G|3-------7--7-7-7-7-7-7-7-7-|
D|--0---0--------------------|
   |-| |-|   |--------------|  

D|---------------------------|
A|---------------------------|
F|5---7---9------------------|
C|5---7---9------------------|
G|3---5---7------------------|
D|--0---0----0-0-0-0-0-0-0-0-|
   |-| |-|   |--------------|  

D|------------------------------------------|
A|------------------------------------------|
F|5---7---9--------------------------5-4----|
C|5---5---9--------------------5--4------5-4|
G|3-------7--7-7-7-7-7-7-7-7---5--4---------|
D|--0---0----------------------3--2---------|
   |-| |-|   |--------------|  

D|---------------------------|
A|---------------------------|
F|5---7---9------------------|
C|5---5---9------------------|
G|3-------7--7777777777777777|
D|--0---0--------------------|
   |-| |-|   |--------------|  

D|---------------------------|
A|---------------------------|
F|5---7---9------------------|
C|5---7---9------------------|
G|3---5---7------------------|
D|--0---0----0000000000000000|
   |-| |-|   |--------------|  

D|------------------------------------------|
A|------------------------------------------|
F|5---7---9--------------------5------4-----|
C|5---5---9--------------------5------4---4-|
G|3-------7--7777777777777777--3-3-3--2-----|
D|--0---0-----------------------------------|
   |-| |-|   |--------------|    |-|      h~

      Pre-chorus.
D|-------------------------------------------------------------|
A|-------------------------------------------------------------|
F|--------------------4-4----------------------------4-4-4--6-6|
C|-----6-6-4-4-6-6--------4-6-4--------6-6-4-4-6-6---6-6-6--7-7|
G|-4-4-------------7-7----------7--4-4-------------------------|
D|-------------------------------------------------------------|

D|------------------------------------------------------------------|
A|----------------------------------------------------10-8----------|
F|--------------------4-4---------------------------9------9-8-7-6--|
C|-----6-6-4-4-6-6--------4-6-4--------6-6-4-4-6-6-----------------8|
G|-4-4-------------7-7----------7--4-4------------------------------|
D|------------------------------------------------------------------|
      
      Chorus.
D|--------------------------------------------------|
A|-------------------------------12-12--------------|
F|-------13-13-11-11-13-13-------------11-13-11-----|   
C|-11-11-------------------14-14----------------14--|     
G|--------------------------------------------------|
D|--------------------------------------------------|

D|-----------------------------12-------15-18-|
A|---------------------------14--14---16------|
F|------13-13-11-11-13-13--14-------15--------|
C|-11-11--------------------------------------|
G|--------------------------------------------|
D|--------------------------------------------|
            
D|--------------------------------------------------|
A|-------------------------------12-12--------------|
F|-------13-13-11-11-13-13-------------11-13-11-----|   
C|-11-11-------------------14-14----------------14--|     
G|--------------------------------------------------|
D|--------------------------------------------------|

D|---------------------------18-15--------------|
A|-------------------------17-----17-16-15-14---|
F|------13-13-11-11-13-13--------------------15-|
C|-11-11----------------------------------------|
G|----------------------------------------------|
D|----------------------------------------------|
    Intro.
D|----------------------------------------|
A|----------------------------------------|
F|999999999999-7777-99999999999-1212------|
C|999999999999-7777-99999999999-1212-1212-|
G|777777777777-5555-77777777777-1010-1212-|
D|-----------------------------------1010-|
             
D|------------------8-785--------------------|
A|-----------------------8-7-5---5-7-8-7b-5--|
F|999999999999-7777-----------7-4----------7-|
C|999999999999-7777--------------------------|
G|777777777777-5555--------------------------|
D|-------------------------------------------|

        Verse.
D|-----------------------------------------|
A|-----------------------------------------|
F|-----------------------------------------|
C|-9--3---5---7-5--9--5s7--12s9------------|
G|-7--1---3---5-3--7--3s5--10s7------------|
D|--00-000-000------00---00-----0000-000000|
    || |-| |-|      ||   ||     |---------|             
                 
D|------------------------------------------|
A|------------------------------------------|
F|----------------------------------5-7-9---|
C|-9--------------------------------5-7-9---|
G|-7-7777777777777777777777777777---3-5-7---|
D|------------------------------------------|
     |---------------------------|                

D|-----------------------------------------|
A|-----------------------------------------|
F|-----------------------------------------|
C|-9--3---5---7-5--9--5s7--12s9------------|
G|-7--1---3---5-3--7--3s5--10s7------------|
D|--00-000-000------00---00-----0000-000000|
    || |-| |-|      ||   ||     |---------|             
                 
D|------------------------------------------|
A|------------------------------------------|
F|----------------------------------5-7-9---|
C|-9--------------------------------5-7-9---|
G|-7-7777777777777777777777777777---3-5-7---|
D|------------------------------------------|
     |---------------------------|                
  
     Breakdown.  
D|---------------|
A|---------------|
F|---------------|
C|-5---------2---|   Played 4 times.
G|-3------2--2---|
D|-3--3-5----0---|
 
D|--------------------------------|
A|--------------------------------|
F|--------------------------------|
C|-5-5-5-5-5----------------------|   Played 4 times.
G|-3-3-3-3-3--2-2-2-2-2--2-2-2----|
D|------------0-0-0-0-0--0-0-0----|
  |------------------------|  
      Bridge.
D|----------------------------------------------------|
A|----------------------------------------------------|
F|----------------------------------------------------|
C|----------------------------------------------------|   Played twice.
G|-2-2-2-2-2--2-2-2-2-2--2-2-2--2-2-2-2-2--2-2-2-2-2--|
D|-0-0-0-0-0--0-0-0-0-0--0-0-0--0-0-0-0-0--0-0-0-0-0--|
  |-------------------------------------------|

      Solo.
D|-10b--------------------------|
A|-10b--10s12--t17p12-t15p12s10-|
F|------------------------------|
C|------------------------------|
G|------------------------------|
D|------------------------------|
 
D|-7-5-6-7-6-5--------------------------------------|
A|------------7-6-5-7-6-5-6-5-----------------------|
F|----------------------------6-4-5-4---------------|
C|------------------------------------6-4-6-5-4---4-|
G|----------------------------------------------7---|
D|--------------------------------------------------|
                                             h~

D|-10-7-9-10-12-9-10-12-14-10-12-14-15-12-14-15-|
A|----------------------------------------------|
F|----------------------------------------------|
C|----------------------------------------------|
G|----------------------------------------------|
D|----------------------------------------------|

D|17-15-14-17-19-15-17-19-22-19----------------|
A|-----------------------------22-19-20-19-----|
F|----------------------------------------21-19|
C|---------------------------------------------|
G|---------------------------------------------|
D|---------------------------------------------|
 
D|----------------------------|
A|------------22b-22br--------|
F|-21b-21br-------------------|
C|----------------------------|
G|----------------------------|
D|----------------------------|
   h~         h~

D|------------------------------------------------------------|
A|19-18-17----------------------------------------------------|
F|--------19-18-16-19-18-16-----------------------------------|
C|-------------------------19-17-16-19-17-16-------19s16------|
G|------------------------------------------19---17-----17-19-|
D|------------------------------------------------------------|
                                                   h  

D|--------------19-17-22--19s-----------------------24s22---|
A|---17-15-15-17--------------20s---------------------------|
F|--------------------------------19s-------16-19-21-----19-|
C|-16----------------------------------16-19----------------|
G|----------------------------------------------------------|
D|----------------------------------------------------------|
     h           

D|------------17-19-21-----------14-15-17-|
A|----17-19-20-----------14-15-17---------|
F|-19-----------------16------------------|
C|----------------------------------------|
G|----------------------------------------|
D|----------------------------------------|
   

D|-19-17-15--------22-20-22-20-19----------------|
A|---------19-17-15--------------22-20-19--------|
F|---------------------------------------21-19---|
C|--------------------------------------------19b|
G|-----------------------------------------------|
D|-----------------------------------------------|

    Keyboard Solo.
D|-----------------------------------------------------------|
A|-----------------------------------------------------------|
F|-----------------------------------------------------------|
C|4-------4-------4-------4--2--7-------7-------7-------7--2-| Play Twice
G|2-2222222-2222222-2222222--0--5-5555555-5555555-5555555--0-|
D|-----------------------------------------------------------|
    |-----| |-----| |-----|       |-----| |-----| |-----|

   Keyboard & Guitar Unison
D|--------------14-12-----12-----12-15-14-12-14-15-14-12-|
A|15-14-12-14-15-----15-14--15-14------------------------|
F|-------------------------------------------------------|
C|-------------------------------------------------------|
G|-------------------------------------------------------|
D|-------------------------------------------------------|
            
D|--------------12----------------------------------------19-21-22-21-19|
A|15-14-12-14-15--15-14-12------------------------19-20-22--------------|
F|------------------------14-12-11--------18-19-21----------------------|
C|--------------------------------17-19-21------------------------------|
G|----------------------------------------------------------------------|
D|----------------------------------------------------------------------|
   
D|-----19-------------------------------------------------|
A|22-20----17--15-------15-14--14-15-14-17-14-15-14-17-14-|
F|-------16--14----16--------16---------------------------|
C|---------------16--14-----------------------------------|
G|--------------------------------------------------------|
D|--------------------------------------------------------|

D|--------------------------------------17-19-21--22--21--19--21--19|
A|15-12-14-15-17-14-15-17-19-15-17-19-20----------------------------|
F|------------------------------------------------------------------|
C|------------------------------------------------------------------|
G|------------------------------------------------------------------|
D|------------------------------------------------------------------|
   
D|----------19-19-19----|
A|2222b----------------|
F|----------------------|
C|----------------------|
G|----------------------|
D|----------------------|
C|----------------------|

    High Pre-chorus.
D|--------------------------------------------|
A|--------------------------------------------|
F|----------------------------14-14-----------|  Played 4 times.
C|------16-16-14-14-16-16----------14-16-14---|
G|-14-14-----------------17-17-------------17-|
C|--------------------------------------------|

     Chorus.
D|--------------------------------------------------|
A|-------------------------------12-12--------------|
F|-------13-13-11-11-13-13-------------11-13-11-----|   
C|-11-11-------------------14-14----------------14--|     
G|--------------------------------------------------|
D|--------------------------------------------------|

D|-----------------------------12-------15-18-|
A|---------------------------14--14---16------|
F|------13-13-11-11-13-13--14-------15--------|
C|-11-11--------------------------------------|
G|--------------------------------------------|
D|--------------------------------------------|
            
D|--------------------------------------------------|
A|-------------------------------12-12--------------|
F|-------13-13-11-11-13-13-------------11-13-11-----|   
C|-11-11-------------------14-14----------------14--|     
G|--------------------------------------------------|
D|--------------------------------------------------|

D|---------------------------18-15--------------|
A|-------------------------17-----17-16-15-14---|
F|------13-13-11-11-13-13--------------------15-|
C|-11-11----------------------------------------|
G|----------------------------------------------|
D|----------------------------------------------|

D|--------------------------------------------------|
A|-------------------------------12-12--------------|
F|-------13-13-11-11-13-13-------------11-13-11-----|   
C|-11-11-------------------14-14----------------14--|     
G|--------------------------------------------------|
D|--------------------------------------------------|

D|-----------------------------12-------15-18-|
A|---------------------------14--14---16------|
F|------13-13-11-11-13-13--14-------15--------|
C|-11-11--------------------------------------|
G|--------------------------------------------|
D|--------------------------------------------|
            
D|--------------------------------------------------|
A|-------------------------------12-12--------------|
F|-------13-13-11-11-13-13-------------11-13-11-----|   
C|-11-11-------------------14-14----------------14--|     
G|--------------------------------------------------|
D|--------------------------------------------------|

D|---------------------------------------------------|
A|---------------------------------------------------|
F|------13-13-11-11-13-13----------------------------|
C|-11-11--------------------7-5----------7-5---------|
G|-------------------------7---7-6-5-4--7---7-6-5-4--|
D|------------------------------------6------------6-|

  Outro.
D|----------------------------------------------------|
A|----------------------------------------------------|
F|----------------------------------------------------|
C|-6--------------------------------9-6--2-4--9-6s----|
G|-4-444444444444444444444444444444-7-4--0-2--7-4s----|
D|----------------------------------------------------|
    |-----------------------------|
    
Hope It helped.            
Tap to rate this tab
 
# A B C D E F G H I J K L M N O P Q R S T U V W X Y Z