Song name
# A B C D E F G H I J K L M N O P Q R S T U V W X Y Z

Children Of Bodom - Trashed Lost And Strungout tab


P.M--------------------------------------------------------------------| x2

C---0-0-0-0----0----0-0-0-0----0----0-0-0-0----0-0----0-0-0-0-----0-0----------------|
G------------------------------------------------------------------------------------|
C------------------------------------------------------------------------------------|
F------------------------------------------------------------------------------------|
A------------------------------------------------------------------------------------|
D------------------------------------------------------------------------------------|





C--------0----8--0-------------------------------------------------------------------|
G---8--5----7--------6----------5--8------------5--8---------------------------------|
C------------------------8--7-----------7--6-------------6---------------------------|
F------------------------------------------------------------------------------------|
A------------------------------------------------------------------------------------|
D------------------------------------------------------------------------------------|




C--------0----8--0-------------------------------------------------------------------|
G---8--5----7--------6----------5--8------------5--8---------------------------------|
C------------------------8--7-----------7--6-------------7--5--7--6--5---------------|
F------------------------------------------------------------------------------------|
A------------------------------------------------------------------------------------|
D------------------------------------------------------------------------------------|


P.M= Palm Mute
Tap to rate this tab
# A B C D E F G H I J K L M N O P Q R S T U V W X Y Z