Guitaretab - guitar tabs
Song name
# A B C D E F G H I J K L M N O P Q R S T U V W X Y Z

Children Of Bodom - Silent Night Bodom Night tab


      Children Of Bodom  Silent Night, Bodom Night (solo)
 -------------------------------------------------------------

 Tuning is D standard (DGCFAD)

 h = hammer on
 p = pull off
 ~ = vibrato
 b = bend

 I figured most of this out by ear, the other bit from watching vids of the song (alexi, 
Sorry for any mistakes, enjoy!!

 DiMeTiMe


|-15-0-0-0-0-0-17-0-0-0-0-0-|-19-0-0-0-0-0-15-0-0-0-0-0-|
|---------------------------|---------------------------|
|---------------------------|---------------------------|
|---------------------------|---------------------------|
|---------------------------|---------------------------|
|---------------------------|---------------------------|


|----15-19p15-------------14-17p14-17-|-15--------------------0---|
|-17----------17-------15-------------|---------------------------|
|----------------16-14----------------|---------------------------|
|-------------------------------------|---------------------------|
|-------------------------------------|---------------------------|
|-------------------------------------|---------------------------|


|-15-0-0-0-0-0-17-0-0-0-0-0-|-19-0-0-0-0-0-15-0-0-0-0-0-|
|---------------------------|---------------------------|
|---------------------------|---------------------------|
|---------------------------|---------------------------|
|---------------------------|---------------------------|
|---------------------------|---------------------------|


|----12-15p12-------------14-17p14-17-|-15--------------------0---|
|-13----------13-------15-------------|---------------------------|
|----------------12-14----------------|---------------------------|
|-------------------------------------|---------------------------|
|-------------------------------------|---------------------------|
|-------------------------------------|---------------------------|


|-15-0-0-0-0-0-17-0-0-0-0-0-|-19-0-0-0-0-0-15-----------|
|---------------------------|---------------------17----|
|---------------------------|---------------------------|
|---------------------------|---------------------------|
|---------------------------|---------------------------|
|---------------------------|---------------------------|


|----------17----17-19-17-19-17-------|-----------------------0---|
|-20-19-20----20----------------20-19-|-20------------------------|
|-------------------------------------|---------------------------|
|-------------------------------------|---------------------------|
|-------------------------------------|---------------------------|
|-------------------------------------|---------------------------|


|-15-0-0-0-0-0-17-0-0-0-0-0-|-19-0-0-0-0-0-15-----------|
|---------------------------|---------------------19----|
|---------------------------|---------------------------|
|---------------------------|---------------------------|
|---------------------------|---------------------------|
|---------------------------|---------------------------|

[ Tab from: http://www.guitaretab.com/c/children-of-bodom/30863.html ]
|----------17-19-21----------19-20-22-|-22b(24)-------------/14---|
|-17-19-20----------19-20-22----------|---------------------------|
|-------------------------------------|---------------------------|
|-------------------------------------|---------------------------|
|-------------------------------------|---------------------------|
|-------------------------------------|---------------------------|


|-17-14-14-14-14-14-19-14-14-14-14-14-|-21-14-14-14-14-14-17-----16---|
|-------------------------------------|-------------------------------|
|-------------------------------------|-------------------------------|
|-------------------------------------|-------------------------------|
|-------------------------------------|-------------------------------|
|-------------------------------------|-------------------------------|


|----17-21p17-------------16-19p16-19-|-17--------------------14--|
|-19----------19-------17-------------|---------------------------|
|----------------18-16----------------|---------------------------|
|-------------------------------------|---------------------------|
|-------------------------------------|---------------------------|
|-------------------------------------|---------------------------|


|-17-14-14-14-14-14-19-14-14-14-14-14-|-21-14-14-14-14-14-17-14--16---|
|-------------------------------------|-------------------------------|
|-------------------------------------|-------------------------------|
|-------------------------------------|-------------------------------|
|-------------------------------------|-------------------------------|
|-------------------------------------|-------------------------------|


|----14-17p14-------------16-19p16-19-|-17--------------------0---|
|-15----------15-------17-------------|---------------------------|
|----------------14-16----------------|---------------------------|
|-------------------------------------|---------------------------|
|-------------------------------------|---------------------------|
|-------------------------------------|---------------------------|


|-15-0-0-0-0-0-17-0-0-0-0-0-|-19-0-0-0-0-0-15-0-0-0-0-0-|
|---------------------------|---------------------------|
|---------------------------|---------------------------|
|---------------------------|---------------------------|
|---------------------------|---------------------------|
|---------------------------|---------------------------|


|----15-19p15-------------14-17p14-17-|-15--------------------0---|
|-17----------17-------15-------------|---------------------------|
|----------------16-14----------------|---------------------------|
|-------------------------------------|---------------------------|
|-------------------------------------|---------------------------|
|-------------------------------------|---------------------------|


|-15-0-0-0-0-0-17-0-0-0-0-0-|-19-0-0-0-0-0-15-0-0-0-0-0-|
|---------------------------|---------------------------|
|---------------------------|---------------------------|
|---------------------------|---------------------------|
|---------------------------|---------------------------|
|---------------------------|---------------------------|


|-20-19-17----------19-17-15----------|---------------------------|
|----------20-19-17----------19-17-15-|-17~-----------------------|
|-------------------------------------|---------------------------|
|-------------------------------------|---------------------------|
|-------------------------------------|---------------------------|
|-------------------------------------|---------------------------|


Good luck learning this!! Not too hard though, just practice the sweeps alot!
Related for Silent Night Bodom Night tab