Song name
# A B C D E F G H I J K L M N O P Q R S T U V W X Y Z

Children Of Bodom - Sixpounder tab

this song is pretty easy if you look at this easily.
VERSE: 1 PART 1
|----------------------------------------------|
|----------------------------------------------|
|----------------------------------------------|
|-------------------------------------3--------|
|--0--6--5--2----0--5--4--1-----------3--------|
|--0--6--5--2----0--5--4--1---0-0-0------------|
                              * * *
VERSE: 2 PART 2
|--------------------------------------------------|
|--------------------------------------------------|
|--------------------------------------------------|
|----------------------------------------------6-5-|
|--0--6--5--2----0--5--4--1--------------------4-3-|
|--0--6--5--2----0--5--4--1---0-0-0---3-4--0-0-----|
                              * * *
WHAT EVER PART THIS IS.
|--------------------------------------------|
|--------------------------------------------|
|--------------------------------------------|
|--5-------7-6-------5-6-6-------------------|
|--3-------5-4-------3-4-4-------------------|
|-----0-0-------0-0---------0-0-0-0-0-0-0-0--|  X WHAT EVER U FIND IT OUT.
      * *       * *         * * * * * * * *

FILL
|-------------------------------------|
|-------------------------------------|
|------------------------0--4--5--7---|
|------------0--3--5--6---------------|
|0--3--5--6---------------------------|
|-------------------------------------|

REAPEAT THIS SOMEWHAT.
|---------------------------------------------------------------------|
|---------------------------------------------------------------------|
|---------------------------------------------------------------------|
|---------------------------------------------------------------------|
|--0--0--0-0-0--0--10-10-10-10-10-9-9-9-9-9-9---0--0--0-0-0--0-0--2---|
|--0--0--0-0-0--0--10-10-10-10-10-9-9-9-9-9-9---0--0--0-0-0--0-0--2---|
                   FAST^^^ PICKING^^^                        * *

im to lazy too but you can put all this together just repeat it and your done.LISTEN TO 
SONG.

TAB LEGEND
===========
*= palm mute


WHILE IM HERE IF YOU WANT FREE STUFF GO TO 
FOR MORE INFO GO TO THIS YOUTUBE VIDEO:http://www.youtube.com/watch?v=aONjKFc-RgE
Tap to rate this tab
# A B C D E F G H I J K L M N O P Q R S T U V W X Y Z