Song name
# A B C D E F G H I J K L M N O P Q R S T U V W X Y Z

Children Of Bodom - Iinto Tokyo Warhearts tab

Artist:	Children of Bodom
Album:	Tokyo warhearts
Title:	Intro

tune one whole step (E1=D, B=A, G=F, D=C, A=G, E2=D)

(Without distortion)

E|-------------------------------------------------------|---12-----------------------|
B|---------------------------------12--------------------|-------15--12---------------|
G|-----------------------------12------14~-----14--12----|o-------------12-14--12--14-|
D|-2--------------------------------------------------14-|o---------------------------|
A|-2-----------------------------------------------------|----------------------------|
E|-0-----------------------------------------------------|----------------------------|


E|--------------------------------------------------12-------------------------------------------|
B|-----------------------------------------------------15--12------------------------------------|
G|-------12--14--12--14--12--14--12---------------------------12-14-14-12--14-----12--14--12--14-|
D|---14------------------------------14----12--14------------------------------14----------------|
A|-----------------------------------------------------------------------------------------------|
E|-----------------------------------------------------------------------------------------------|


E|-----------12----------------------------|
B|--12-13-15----15--12---------------------|
G|----------------------12----------------o|
D|-------------------------14-----9*------o|
A|--------------------------------7*-------|
E|-----------------------------------------|


*=let ring
Tap to rate this tab
# A B C D E F G H I J K L M N O P Q R S T U V W X Y Z