Song name
# A B C D E F G H I J K L M N O P Q R S T U V W X Y Z

Children Of Bodom - Sixpounder tab

This is the 2nd Sixpounder solo tab, and it's the Alexi's method to play this solo.

Vibrato - ~~ or ~
Hammer on - h
Pull off - p

D|----------------------------------------------------------|
A|------------15-16-15-------18-15--------------------------|
F|---17~~--17----------17-15-------17-15--------------------|
C|----------------------------------------------------------|
G|----------------------------------------------------------|
C|----------------------------------------------------------|

D|---18-15-------20-18-16-20-18-16-------15-----------------|
A|---------18-16-------------------18-16----18-16-15--------|
F|---------------------------------------------------17~----|
C|----------------------------------------------------------|
G|----------------------------------------------------------|
C|----------------------------------------------------------|

D|---------------------------------18p15--------------------|
A|------15-16-15-------18-15-------------19p15----15h19-----|
F|---17----------17-15-------17-15-------------17-----------|
C|----------------------------------------------------------|
G|----------------------------------------------------------|
C|----------------------------------------------------------|

D|---15-----------------------------------------------------|
A|---------------15h18p15-----------------16-17-16----------|
F|-------------------------------18~~--18----------18-16----|
C|---------15h19----------19p15-----------------------------|
G|------17--------------------------------------------------|
C|----------------------------------------------------------|

D|---------------19-16-------21-19-17-21-19-17--------------|
A|---19-16-------------19-17--------------------------------|
F|---------18-16--------------------------------------------|
C|----------------------------------------------------------|
G|----------------------------------------------------------|
C|----------------------------------------------------------|

D|---------16-----------------------------------------------|
A|---19-17----19-17-16---------16-17-16-------19-16---------|
F|---------------------18~--18----------18-16-------18-16---|
C|----------------------------------------------------------|
G|----------------------------------------------------------|
C|----------------------------------------------------------|

D|---19-16----------------16--------------------------------|
A|---------16----------16----------------19-----------------|
F|------------16----16----------------20----20--------------|
C|---------------18----------------20----------20-----------|
G|---------------------------18-21----------------21~-------|
C|----------------------------------------------------------|

D|--------------------------------------20-17---------------|
A|-----------17-18-17-------20-17-------------20-18---------|
F|---19~~-19----------19-17-------19-17---------------------|
C|----------------------------------------------------------|
G|----------------------------------------------------------|
C|----------------------------------------------------------|

D|---22-20-18-22-20-18-------17-----------------------------|
A|---------------------20-18----20-18-17---------17-18-17---|
F|---------------------------------------19~--19------------|
C|----------------------------------------------------------|
G|----------------------------------------------------------|
C|----------------------------------------------------------|

D|----------------------------------------------------------|
A|----------------------------------------------------------|
F|---19-17-15----17-15--------------------------------------|
C|------------17-------19-17-15----------15-17-15-----------|
G|------------------------------19-17-19--------------------|
C|----------------------------------------------------------|

D|------------------------|
A|------------------------|
F|------------------------|
C|---17h19p17-15----------|
G|---------------19-17~---|
C|------------------------|
Tap to rate this tab
# A B C D E F G H I J K L M N O P Q R S T U V W X Y Z