Song name
# A B C D E F G H I J K L M N O P Q R S T U V W X Y Z

Children Of Bodom - Youre Better Off Dead tab

Children of Bodom:
you're better off Dead
Tabbed by:Fretburner214
Tuning:D G C F A D
Key:
/-Slide
h-Hammer-on
p-Pull-off
b-Bend
~-Vibrato
()-Tie
*-Harmonic
<-Pull up Whammy-bar

Intro
d:---------------------------------------------------------------------|
a:--------------------------------------------------------<*5----------|
f:--------------------------------------------------------<*5----------|
c:---------------------------------------------------------------------|
g:---------------------------------------------------------------------|
d:-3-2-0-4-3-0-3-2-0-4-3-0-3-2-0-0-3-2-0-4-3-0-3-2-0-------------------|

d:----------------------------------------------------|
a:----------------------------------------------------|
f:----------------------------------------------------|
c:-----------7-----------------------7-7-7-7-6-6-6-6--|
g:-4-4-5-4-4-5-4-4-5-4-4-4-4-7-7-7-7------------------|
d:-2-2-3-2-2---2-2-3----------------------------------|

d:-----------------------------------------------------------|
a:-----------------------------------------------------------|
f:-----------------------------------------------------------|
c:-9-9-9-7-7-7-9-9-9-5-5-5-7-----9-----4-----5-----7---------|
g:-7-7-7-5-5-5-7-7-7-3-3-3-5-7-7-7-2-2-2-3-3-3-5-5-5---------|
d:-----------------------------------------------------------|

d:--------------------------12-------------9-14-12-14-10-14-9-14---14---14---|
a:----------9----9--10-9-10----10-9-10---12----------------------12---10---9-|
f:-11-9-11----11-----------------------11------------------------------------|
c:---------------------------------------------------------------------------|
g:---------------------------------------------------------------------------|
d:---------------------------------------------------------------------------|

Chorus
d:-14-----17-14-----17-----16h19p16------16h17p16-------14h19p14-----|
a:---14-17-----14-17-----17--------17--17---------17--15--------15---|
f:---------------------16------------16-------------16---------------|
c:-------------------------------------------------------------------|
g:-------------------------------------------------------------------|
d:-------------------------------------------------------------------|

d:-----14h17p14---14-----17-16---12-16---------17---------------20-------|
a:---15--------14---14-17------12------15-17-19---19-17-19-20-21---21-19-|
f:-16--------------------------------------------------------------------|
c:-----------------------------------------------------------------------|
g:-----------------------------------------------------------------------|
d:-----------------------------------------------------------------------|

d:---------19---------------14----------|
a:-17-19-21---21-19-12-14-15---15-14-15-|
f:--------------------------------------|(Play twice)
c:--------------------------------------|
g:--------------------------------------|
d:--------------------------------------|

Rhythm
d:------------------------------------------------------------|
a:------------------------------------------------------------|
f:------------------------------------------------------------|
c:-7-------7-7-11-------11-11---------------------------------|
g:-5-5-5-5-5-5-9--9-9-9-9--9--7-7-7-7-7-7-7-7-2-2-2-2-2-2-2-2-|
d:------------------------------------------------------------|

d:-------------------------------------------------------------|
a:-------------------------------------------------------------|
f:-------------------------------------------------------------|
c:-7-------7-7-9-------9-9-7-7-7-7-11-11-11-11-9-9-9-9-4-4-4-4-|
g:-5-5-5-5-5-5-7-7-7-7-7-7-5-5-5-5-9--9--9--9--7-7-7-7-2-2-2-2-|
d:-------------------------------------------------------------|

d:------------------------------------------------------------|
a:------------------------------------------------------------|
f:------------------------------------------------------------|
c:-7-------7-7-11-------11-11---------------------------------|
g:-5-5-5-5-5-5-9--9-9-9-9--9--7-7-7-7-7-7-7-7-2-2-2-2-2-2-2-2-|
d:------------------------------------------------------------|

d:------------------------------------------------------------|
a:------------------------------------------------------------|
f:------------------------------------------------------------|
c:-7-------7-7-9-------9-9-7-7-7-7-11-11-11-11-9-9-9-9--------|
g:-5-5-5-5-5-5-7-7-7-7-7-7-5-5-5-5-9--9--9--9--7-7-7-7-7-7-4--|
d:-----------------------------------------------------5-4-2--|

Bridge(And rhythm behind keyboard solo)
d:---------------------------------------------------------------------|
a:---------------------------------------------------------------------|
f:---------------------------------------------------------------------|
c:---------------------------------------------------------------------|
g:---------------------------------------------------------------------|
d:-0-0-0-0-0-0-0-0-0-0-0-0-0-0-0-0-0-0-0-0-0-0-0-0-0-0-0-0-0-0-0-0-0-0-|


d:--------------------------------------------------------------|
a:--------------------------------------------------------------|
f:--------------------------------------------------------------|
c:-9-------------9\8---8\7---7\6-------------6/5----5\3-----3/6-|
g:-7-------------7\6---6\5---5\4-3---2-2---3-4/7----7\1-----1/4-|
d:---0-0-0-0-0-0-----0-----0-----5-0-4-4-0-5-----0-0----0-0-----|

Rhythm behind guitar solo
d:-------------------------------------------------------------------|
a:-------------------------------------------------------------------|
f:-------------------------------------------------------------------|
c:-4-4-4-6-6-6-6-4-4-4-6-6-4-4-4-4-4-6-6-6-6-6-----------------------|
g:-2-2-2-4-4-4-4-2-2-2-4-4-2-2-2-2-2-4-4-4-4-4-6-6-6-7-7-7-9-9-9-9-9-|
d:---------------------------------------------4-4-4-5-5-5-7-7-7-7-7-|

d:---------------------------|
a:---------------------------|
f:---------------------------|
c:-6-6-6-6-6-------9-9-9-----|
g:-4-4-4-4-4-6-6-6-7-7-7-9-9-|
d:-----------4-4-4-------7-7-|

Solo(Bar 1)
d:-----9---------9-b12-b12(12)-9--b14(14)-12---b16-b16-b16~---|
a:----9--b12----9---------------12----------14----------------|
f:-b11-------b11----------------------------------------------|
c:------------------------------------------------------------|
g:------------------------------------------------------------|
d:------------------------------------------------------------|

Bar 2
d:-------------------------19-16-------21-16-------------------16-17-19-|
a:-17-16-------19-16-------------17-16-------17-16-17-16-17-19----------|
f:-------18-16-------18-16----------------------------------------------|
c:----------------------------------------------------------------------|
g:----------------------------------------------------------------------|
d:----------------------------------------------------------------------|

Bar 3
d:-17-16-------------------------------------------------------------|
a:-------19-17-16-17-16----------------------------------------------|
f:----------------------18-16-18-16-------16-------------------------|
c:----------------------------------19-18----19-18-16-18-16----16-18-|
g:----------------------------------------------------------19-------|
d:-------------------------------------------------------------------|

Bar 4
d:-------------------16~--|
a:-------------------17~--|
f:-16-18-16-18-16---------|
c:----------------18------|
g:------------------------|
d:------------------------|

*At the beginning of the solo, Alexi uses a Dimabag Crybaby Wah pedal.*
Tap to rate this tab
# A B C D E F G H I J K L M N O P Q R S T U V W X Y Z