Song name
# A B C D E F G H I J K L M N O P Q R S T U V W X Y Z

Children Of Bodom - Reap And Roll Excercise 2 tab

D||-----------------------------------|-----------------------------------||
A||-----------------------------------|-----------------------------------||
F||*----------------------------------|----------------------------------*||
C||*----------------5-----------------|----------------5-----------------*||
G||-------------4---------------------|------------4----------------------||
D||---0-2-2-0-2---2---0-6-3-0-2-0-2-3-|--0-2-2-0-2---2---0-6-3-0-2-0-2-3--||


                                         
----------------------------------------|
----------------------------------------|
*---------------------------------------|
*-----------------11--------------------|
-------------10-------------------------|
---0-9-9-0-9----9----0-13-10-0-9-0-9-10-|


                                          
----------------------------------------||
----------------------------------------||
---------------------------------------*||
-----------------11--------------------*||
------------10--------------------------||
--0-9-9-0-9----9----0-13-10-0-9-0-9-10--||
Tap to rate this tab
 
# A B C D E F G H I J K L M N O P Q R S T U V W X Y Z