Song name
# A B C D E F G H I J K L M N O P Q R S T U V W X Y Z

Children Of Bodom - Reap And Roll Excercise 4 tab

D||--------------------------------------------|
A||--------------------------------------------|
F||--------------------------------------------|
C||--------------------------------------------|
G||--------------------------------------------|
D||--0-12-13-0-13-12-0-12-0-12-10-0-10-12-0-12-|


                                       
--------------------------------------|
--------------------------------------|
--------------------------------------|
--------------------------------------|
--------------------------------------|
--0-12-13-0-13-12-0-0-0-0-0-0-0-0-0-0-|


                                             
--------------------------------------------|
--------------------------------------------|
--------------------------------------------|
--------------------------------------------|
--------------------------------------------|
--0-12-13-0-13-12-0-12-0-12-10-0-10-12-0-12-|


                                                                        
--------------------------------------||-------------------------------|
--------------------------------------||-------------------------------|
--------------------------------------||*------------------------------|
--------------------------------------||*----4/5--5/4--4--4------4-----|
--------------------------------------||-----4/5--5/4--4--4------4-----|
--0-12-13-0-13-12-0-0-0-0-0-0-0-0-0-0-||---0h2/3--3/2--2--2-0--0-2-2-2-|


                                                               
-------------------------------|------------------------------|
-------------------------------|------------------------------|
-------------------------------|------------------------------|
-------------------------8--8--|----4/5--5/4--4--4------4-----|
-------------------------8--8--|----4/5--5/4--4--4------4-----|
--2-2-2-2-2-2-2-2--2-2-2-6--6--|--0h2/3--3/2--2--2-0--0-2-2-2-|


                                                           
--------------------------------||-----------------------||
--------------------------------||-----------------------||
-------------------------------*||-----------------------||
-------------------------7--9--*||----------4~-----------||
-------------------------5--7---||-----------------------||
--2-2-2-2-2-2-2-2--2-2-2--------||--2-2-2-2--------------||
Tap to rate this tab
# A B C D E F G H I J K L M N O P Q R S T U V W X Y Z