Song name
# A B C D E F G H I J K L M N O P Q R S T U V W X Y Z

Children Of Bodom - Reap And Roll Excercise 5 tab

D||----------------------------------|----------------------------------|
A||----------------------------------|----------------------------------|
F||----------------------------------|----------------------------------|
C||----------------------------------|----------------------------------|
G||----7h8---8h7---7---7h5---5h7---7-|----7h8---8h7---------------------|
D||--0-----0-----0---0-----0-----0---|--0-----0-----0-0-0-0-0-0-0-0-0-0-|


                                                                                
----------------------------------|--------------------------------------------|
----------------------------------|--------------------------------------------|
----------------------------------|--------------------------------------------|
----------------------------------|---------9-7-----------------12-10----------|
----7h8---8h7---7---7h5---5h7---7-|--10-9-7-----10-9-7-13-12-10-------13-12-10-|
--0-----0-----0---0-----0-----0---|--------------------------------------------|


                                                                      
----------------------------------|----------------------------------|
----------------------------------|----------------------------------|
----------------------------------|----------------------------------|
----------------------------------|----------------------------------|
----7h8---8h7---7---7h5---5h7---7-|----7h8---8h7---------------------|
--0-----0-----0---0-----0-----0---|--0-----0-----0-0-0-0-0-0-0-0-0-0-|


                                                                             
----------------------------------|------------------------------------|---||
----------------------------------|------------------------------------|---||
----------------------------------|------------------------------------|---||
----------------------------------|---------9-7--------------7-5-------|---||
----7h8---8h7---7---7h5---5h7---7-|--10-9-7-----10-9-7-9-7-5-----9-7-5-|---||
--0-----0-----0---0-----0-----0---|------------------------------------|---||
Tap to rate this tab
 
# A B C D E F G H I J K L M N O P Q R S T U V W X Y Z