Song name
# A B C D E F G H I J K L M N O P Q R S T U V W X Y Z

Children Of Bodom - Reap And Roll Excercise 6 tab

D||--------------------|------------------------------|--------------------|
A||--------------------|------------------------------|--------------------|
F||-----------4--------|------------------------------|--6--------5--------|
C||--5--------4--------|------------------------------|--6--------5--------|
G||--5--------2--------|---------7h5----7h5--8--------|--4--------3--------|
D||--3-----------------|--0--0-0------0---------0-0-0-|--------------------|


                                                          
------------------------------------|--------------------|
------------------------------------|--------------------|
------------------------------------|-----------4--------|
------------------------------------|--5--------4--------|
------------------------------------|--5--------2--------|
--0-0-0-0-12-10-0-6-5-0-5-3-0-5-1-0-|--3-----------------|


                                                        
----------------------------------|--------------------|
----------------------------------|--------------------|
-----12---12-11---11-9---9-8-8----|--6--------5--------|
--9-----9-------8------7----------|--6--------5--------|
----------------------------------|--4--------3--------|
----------------------------------|--------------------|


                                                                  
------------------------------------|----------------------------|
------------------------------------|----------------------------|
------------------------------------|----------------------------|
---------9-7--------------7-5-------|--2--x-x-4--7--5--x-x-4--5--|
--10-9-7-----10-9-7-9-7-5-----9-7-5-|----------------------------|
------------------------------------|----------------------------|


                                                                           
------------------------|----------------------------|--------------------|
------------------------|----------------------------|-----------7--------|
------------------------|----------------------------|--5-----------------|
--2---2---2---2---2-----|--2--x-x-4--7--5--x-x-4--5--|--------------------|
--2---2---2---2---2-----|----------------------------|--------------------|
--0---0---0---0------3--|----------------------------|--------------------|


            
----------||
----------||
----------||
----------||
----------||
----------||
Tap to rate this tab
# A B C D E F G H I J K L M N O P Q R S T U V W X Y Z