Song name
# A B C D E F G H I J K L M N O P Q R S T U V W X Y Z

Children Of Bodom - Reap And Roll Excercise 7 tab

D||---------------------------------|------------------------------|
A||---------------------------------|------------------------------|
F||---------------------------------|--9------7--10--9------7--10--|
C||---------------------------------|--7------5--8---7------5--8---|
G||--2--2-2-4-4-7-7-5-5-5-5-4-4-5-5-|-----0-0-----------0-0--------|
D||---------------------------------|------------------------------|


                                                       
---------------------------------|-------------------||
---------------------------------|-------------------||
---------------------------------|--7----------------||
---------------------------------|-------------------||
--2--2-2-4-4-7-7-5-5-5-5-4-4-5-5-|-------------------||
---------------------------------|-------------------||
Tap to rate this tab
# A B C D E F G H I J K L M N O P Q R S T U V W X Y Z