Song name
# A B C D E F G H I J K L M N O P Q R S T U V W X Y Z

Children Of Bodom - Reap And Roll Excercise 8 tab

D||--------------------------------|--------------------------------|
A||--------------------------------|--------------------------------|
F||----------2--3------------------|----------5--4------------------|
C||----------2--3------------------|----------3--2------------------|
G||--0-0-0-0-------0-0-0-0-0-0-0-0-|--0-0-0-0-------0-0-0-0-0-0-0-0-|
D||--------------------------------|--------------------------------|


                                                  
------------------------|------------------------|
------------------------|------------------------|
--5---5---5--7---7---7--|--5---5---5--4---4---4--|
--5---5---5--5---5---5--|--7---7---7--5---5---5--|
------------------------|------------------------|
------------------------|------------------------|


                                                                 
-------------------------------|--------------------------------|
-------------------------------|--------------------------------|
----------2--3-----------------|----------5--4------------------|
----------2--3-------------5---|----------3--2------------------|
--0-0-0-0-------0-0-0-0-5----5-|--0-0-0-0-------0-0-0-0-0-0-0-0-|
-------------------------------|--------------------------------|


                                                                       
------------------------|------------------------|-------------------||
------------------------|------------------------|-------------------||
--5---5---5--7---7---7--|--5---5---5--4---4---4--|--5----------------||
--5---5---5--5---5---5--|--7---7---7--5---5---5--|--5----------------||
------------------------|------------------------|-------------------||
------------------------|------------------------|-------------------||
Tap to rate this tab
 
# A B C D E F G H I J K L M N O P Q R S T U V W X Y Z