Song name
# A B C D E F G H I J K L M N O P Q R S T U V W X Y Z

Children Of Bodom - Reap And Roll Excercise 9 tab

D||---------8-8-5-5-7-7-----5-5-----|---------8-8-5-5-7-7-----5-5-----|
A||--5--x-x-------------8-8-----7-7-|--5--x-x-------------8-8-----7-7-|
F||---------------------------------|---------------------------------|
C||---------------------------------|---------------------------------|
G||---------------------------------|---------------------------------|
D||---------------------------------|---------------------------------|


                                                      
---------8-8-5-5-7-7-----5-5-----|-------------------|
--5--x-x-------------8-8-----7-7-|--5~---------------|
---------------------------------|-------------------|
---------------------------------|-------------------|
---------------------------------|-------------------|
---------------------------------|-------------------|


                                                                          
---------9-9-6-6-8-8-----6-6-----|---------9-9-6-9-11-8-----------11-15-||
--6--x-x-------------9-9-----8-8-|--6--x-x--------------9------11-------||
---------------------------------|------------------------8-12----------||
---------------------------------|--------------------------------------||
---------------------------------|--------------------------------------||
---------------------------------|--------------------------------------||
Tap to rate this tab
 
# A B C D E F G H I J K L M N O P Q R S T U V W X Y Z