Song name
# A B C D E F G H I J K L M N O P Q R S T U V W X Y Z

Children Of Bodom - Reap And Roll Excercise 10 tab

Help us improve GuitareTab! Take a short survey!
D||--------5----------------|------------------------|-----7--8--5----5--7--3--|
A||--5--8-----7----7--8--5--|----5--7--3----5--7--3--|--5----------------------|
F||-------------------------|------------------------|-------------------------|
C||-------------------------|------------------------|-------------------------|
G||-------------------------|------------------------|-------------------------|
D||-------------------------|------------------------|-------------------------|


                                                                            
----3--5--2-------2-----|--------5----------------|------------------------|
---------------3-----3--|--5--8-----7----7--8--5--|----5--7--3----5--7--3--|
------------------------|-------------------------|------------------------|
------------------------|-------------------------|------------------------|
------------------------|-------------------------|------------------------|
------------------------|-------------------------|------------------------|


                                                          
-----7--8--5----5--7--3--|----3--5--2------------|------||
--5----------------------|---------------3--3~---|------||
-------------------------|-----------------------|------||
-------------------------|-----------------------|------||
-------------------------|-----------------------|------||
-------------------------|-----------------------|------||
Related for Reap And Roll Excercise 10 tab