Song name
# A B C D E F G H I J K L M N O P Q R S T U V W X Y Z

Children Of Bodom - Reap And Roll Excercise 11 tab

D||---------------------------------------|
A||---------------------------------------|
F||*-----------9-7-10-9-7-----------------|
C||*--0-10-7-0------------10-8-7----7-----|
G||------------------------------10---8-7-|
D||---------------------------------------|


                                                                                
------------------------------------||-----------------------------------------|
-----------------------------13-----||------------10-8-11-10-8-----------------|
-----------9-7-10-9-7--------12----*||*--0-10-7-0--------------10-8-7----7-----|
--0-10-7-0------------10-8-7-10----*||*-------------------------------10---8-7-|
------------------------------------||-----------------------------------------|
------------------------------------||-----------------------------------------|


                                        
-------------------------------13-----||
-----------10-8-11-10-8--------13-----||
--0-10-7-0--------------10-8-7-10----*||
-------------------------------------*||
--------------------------------------||
--------------------------------------||
Tap to rate this tab
# A B C D E F G H I J K L M N O P Q R S T U V W X Y Z