Song name
# A B C D E F G H I J K L M N O P Q R S T U V W X Y Z

Children Of Bodom - Reap And Roll Excercise 12 tab

D||-----------------------------------------------------------------|
A||--------12-14-15-14-12-15-14-12-------12----------------12-------|
F||--12-15-------------------------15-14----15-14-12-14-15----15-14-|
C||-----------------------------------------------------------------|
G||-----------------------------------------------------------------|
D||-----------------------------------------------------------------|


                                                                              
-----------12----------------------------------12----------------------------|
-----------------------------12----------------------------15-12-------------|
--12-14-15----15-14-12-14-15----15-14-12-14-15----15-14-12-------14-12-------|
-----------------------------------------------------------------------14-12-|
-----------------------------------------------------------------------------|
-----------------------------------------------------------------------------|


                                           
----------------------------------|------||
--15-12-------------15~-----------|------||
--------15-12---------------------|------||
--------------14-12---------------|------||
----------------------------------|------||
----------------------------------|------||
Tap to rate this tab
# A B C D E F G H I J K L M N O P Q R S T U V W X Y Z