Song name
# A B C D E F G H I J K L M N O P Q R S T U V W X Y Z

Children Of Bodom - Reap And Roll Excercise 13 tab

D||--20-17-15-20-17-15-------15----------20-17-15-20-17-15-------15----------|
A||--------------------18-17----18-17-15-------------------18-17----18-17-15-|
F||--------------------------------------------------------------------------|
C||--------------------------------------------------------------------------|
G||--------------------------------------------------------------------------|
D||--------------------------------------------------------------------------|


                                                                     
--20-17-15-20-17-15-------15----------------------------------------|
--------------------18-17----18-17-15-18-17-15-18-17-15-------------|
--------------------------------------------------------17-15-14----|
-----------------------------------------------------------------17-|
--------------------------------------------------------------------|
--------------------------------------------------------------------|


                                             
----------------------------|--------------||
----------------------------|--------------||
----------------------------|--------------||
--15-14---------------------|--------------||
--------17-15-13------------|--------------||
----------------------------|--------------||
Tap to rate this tab
 
# A B C D E F G H I J K L M N O P Q R S T U V W X Y Z