Song name
# A B C D E F G H I J K L M N O P Q R S T U V W X Y Z

Children Of Bodom - Reap And Roll Excercise 14 tab

D||----------------------------------------|
A||-------------14-15-14-------17-14-------|
F||--16~-----16----------16-14-------16-14-|
C||----------------------------------------|
G||----------------------------------------|
D||----------------------------------------|


                                                   
--17-14-------19-17-14-19-17-14-------14----------|
--------17-15-------------------17-15----17-15-14-|
--------------------------------------------------|
--------------------------------------------------|
--------------------------------------------------|
--------------------------------------------------|


                                         
----------------------------------------|
-------------14-15-14-------17-14-------|
--16~-----16----------16-14-------16-14-|
----------------------------------------|
----------------------------------------|
----------------------------------------|


                                                   
--17-14-------19-17-14-19-17-14-------14----------|
--------17-15-------------------17-15----17-15-14-|
--------------------------------------------------|
--------------------------------------------------|
--------------------------------------------------|
--------------------------------------------------|


                                         
----------------------------------------|
-------------14-15-14-------17-14-------|
--16~-----16----------16-14-------16-14-|
----------------------------------------|
----------------------------------------|
----------------------------------------|


                                                   
--17-14----------------14-------------------------|
-----------------------------------14-17-14-------|
--------18-14----14-18----------------------------|
--------------16-------------14-18----------18-14-|
--------------------------16----------------------|
--------------------------------------------------|


                                         
----------------------------------------|
-------------15-16-15-------18-15-------|
--17~-----17----------17-15-------17-15-|
----------------------------------------|
----------------------------------------|
----------------------------------------|


                                                   
--18-15-------20-18-15-20-18-15-------15----------|
--------18-16-------------------18-16----18-16-15-|
--------------------------------------------------|
--------------------------------------------------|
--------------------------------------------------|
--------------------------------------------------|


                                         
----------------------------------------|
-------------15-16-15-------18-15-------|
--17~-----17----------17-15-------17-15-|
----------------------------------------|
----------------------------------------|
----------------------------------------|


                                                                         
--18-15----------------15-------------------------|--------------------||
-----------------------------------15-18-15-------|--------------------||
--------19-15----15-19-------------------------15-|--15~---------------||
--------------17-------------15-19----------19----|--------------------||
--------------------------17----------------------|--------------------||
--------------------------------------------------|--------------------||
Tap to rate this tab
# A B C D E F G H I J K L M N O P Q R S T U V W X Y Z