Song name
# A B C D E F G H I J K L M N O P Q R S T U V W X Y Z

Children Of Bodom - Reap And Roll Excercise 15 tab

Help us improve GuitareTab! Take a short survey!
E||--15-12--------------------------------------------------------------|
B||--------15-12-------15-12--------------------------------------------|
G||--------------14-12-------14-12-------14-12-------------9-7----------|
D||--------------------------------14-12-------14-12-----------9-7------|
A||--------------------------------------------------14-12---------10-7-|
E||---------------------------------------------------------------------|


                                 
---------------------------|---||
---------------------------|---||
--7-4----------------------|---||
------7-5------------------|---||
----------7-5-7------------|---||
---------------------------|---||
Related for Reap And Roll Excercise 15 tab