Song name
# A B C D E F G H I J K L M N O P Q R S T U V W X Y Z

Children Of Bodom - Reap And Roll Excercise 16 tab

D||---------14--------------14-------------------|
A||------14----17-14-----14----17-14-15h14----14-|
F||--16b-------------16b-------------------18----|
C||----------------------------------------------|
G||----------------------------------------------|
D||----------------------------------------------|


                                               
----------------------------------------------|
----------------------------------------------|
--17h16h14----------14~-----------------------|
-----------16-16-16------------------------14-|
------------------------15-16-x-x-14-15-16----|
----------------------------------------------|


                                                   
--------------------------------------------------|
--------------------------------------16h14-------|
-----14-------16h14-------17h14-16-14-------16-14-|
--16----16-14-------16-14-------------------------|
--------------------------------------------------|
--------------------------------------------------|


                                                                      
--15b-14-------15b-15b---------|------------------|------------------|
---------17-14-----------------|------------------|------------------|
-------------------------------|------------------|------------------|
-------------------------------|------------------|------------------|
-------------------------------|------------------|------------------|
-------------------------------|------------------|------------------|


                                     
--------------17-----17-----17------|
--------------17-----17-----17------|
-------------------------14---------|
--16-16-16-16-----16----------------|
------------------------------------|
------------------------------------|


                                                  
--14--0-0-0-0-12--0-0-0-0-10--0-0-0-0-7--0-0-0-0-|
-------------------------------------------------|
-------------------------------------------------|
-------------------------------------------------|
-------------------------------------------------|
-------------------------------------------------|


                                                             
--7-9-10-9-7-------------------------------------------|---||
-------------10-9-7------------------------------------|---||
--------------------19-7-6-7-9-7-6---------------------|---||
-----------------------------------9-7-6---------------|---||
-----------------------------------------9-7-5-4-------|---||
-------------------------------------------------7-5-4-|---||
Tap to rate this tab
# A B C D E F G H I J K L M N O P Q R S T U V W X Y Z