Song name
# A B C D E F G H I J K L M N O P Q R S T U V W X Y Z

Children Of Bodom - Reap And Roll Excercise 17 tab

D||--19-21-22-19-21----19----------------19-21-22-19-|
A||-----------------22----21-22-19-21-22-------------|
F||--------------------------------------------------|
C||--------------------------------------------------|
G||--------------------------------------------------|
D||--------------------------------------------------|


                                                   
--21----19----------------19-21-22-21-19----21-19-|
-----22----21-22-19-21-22----------------22-------|
--------------------------------------------------|
--------------------------------------------------|
--------------------------------------------------|
--------------------------------------------------|


                                                         
--------19----------------------------------------17h21h|
--22-21----22-21-19----------------------------19-------|
--------------------21-19-18----------------18----------|
-----------------------------21-19-18----19-------------|
--------------------------------------21----------------|
--------------------------------------------------------|


                                         
--24-21---24------------|--------------||
------------------------|--------------||
------------------------|--------------||
------------------------|--------------||
------------------------|--------------||
------------------------|--------------||
Tap to rate this tab
# A B C D E F G H I J K L M N O P Q R S T U V W X Y Z