Song name
# A B C D E F G H I J K L M N O P Q R S T U V W X Y Z

Children Of Bodom - Reap And Roll Excercise 18 tab

D||--------------12-16-19-14b--19t-------|
A||-----------14-------------------------|
F||--------13----------------------------|
C||-----14-------------------------------|
G||--16----------------------------------|
D||--------------------------------------|


                                                   
--------------12-16-21-17b--21t-------|----------||
-----------14-------------------------|----------||
--------13----------------------------|----------||
-----14-------------------------------|----------||
--16----------------------------------|----------||
--------------------------------------|----------||
Tap to rate this tab
 
# A B C D E F G H I J K L M N O P Q R S T U V W X Y Z