Song name
# A B C D E F G H I J K L M N O P Q R S T U V W X Y Z

Children Of Bodom - Reap And Roll Excercise 19 tab

E||------2-5-2-------2-5-2-------5-8-5---------8-11-8----|
B||----4-------4---4-------4---7-------7----10--------10-|
G||--5-----------5-----------8-----------11--------------|
D||------------------------------------------------------|
A||------------------------------------------------------|
E||------------------------------------------------------|


                                                                              
--------11-14-11----------14-17-14-------------------------------14-17-14----|
-----13----------13----16----------16-------------------------16----------16-|
--14----------------17----------------14----------14-17-14-17----------------|
-----------------------------------------16----16----------------------------|
--------------------------------------------18-------------------------------|
-----------------------------------------------------------------------------|


                                                                            
-----------------------------14-17-14-------------------------------17-18b-|
--------------------------16----------19-------------------------19--------|
--14----------14-17-14-17----------------17----------17-20-17-20-----------|
-----16----16-------------------------------19----19-----------------------|
--------18-------------------------------------21--------------------------|
---------------------------------------------------------------------------|


                                         
----------19--22--20--------|----------||
------21--------------------|----------||
--21------------------------|----------||
----------------------------|----------||
----------------------------|----------||
----------------------------|----------||
Tap to rate this tab
# A B C D E F G H I J K L M N O P Q R S T U V W X Y Z