Song name
# A B C D E F G H I J K L M N O P Q R S T U V W X Y Z

Children Of Bodom - Reap And Roll Excercise 20 tab

D||--------------------15-19-24-19-15----------15-19-|
A||-----------------17----------------17----17-------|
F||--------------16----------------------16----------|
C||-----------17-------------------------------------|
G||--------19----------------------------------------|
D||--15-19-------------------------------------------|


                                                   
--20-19h17h15-------------20h19h17h15-------------|
--------------20h19h17h15-------------20h19h17h15-|
--------------------------------------------------|
--------------------------------------------------|
--------------------------------------------------|
--------------------------------------------------|


                                                                     
--------------------------------------------------------------------|
--------------------------------------------------------------------|
--21h19h17h16h21h19h21h19h17h16h21h19h21h19h17h16h24h19-24h19h17h16-|
--------------------------------------------------------------------|
--------------------------------------------------------------------|
--------------------------------------------------------------------|


                                                                           
--------------------------------------------------------------------------|
--------------------------------------------------------------------------|
--------------------24h19h24h19h17h16-------------------24h19h24h19h17h16-|
--24h19h24h19h17h16-------------------24h19h24h19h17h16-------------------|
--------------------------------------------------------------------------|
--------------------------------------------------------------------------|


                                        
---------------------------|----------||
---------------------------|----------||
---------------------------|----------||
--14h19h17h16--------------|----------||
---------------------------|----------||
---------------------------|----------||
Tap to rate this tab
# A B C D E F G H I J K L M N O P Q R S T U V W X Y Z