Song name
# A B C D E F G H I J K L M N O P Q R S T U V W X Y Z

Children Of Bodom - Trashed Lost And Strungout tab

Trashed, Lost and Strungout-Children of Bodom
Album: Are you dead yet?
All music written by Alexi Laiho

Lead Guitar: Alexi Laiho
Rhythm Guitar: Roope Latvala
Synthesizers: Janne Warman


DROP C TUNING

INTRO

Listen to the song to get where every thing comes in

Rhythm Intro pt.1 Pretty easy, just really fast
D|--------------------------------|----------------------------------|x3
A|--------------------------------|----------------------------------|
F|--------------------------------|----------------------------------|
C|--------------------------------|----------------------------------|
G|--------------------------------|----------------------------------|
C|-0000-0-0000-0-0000-0-0-0000-0-0|-0000-0-0000-0-0000-0-0-0000-0-0--|


Lead Intro. This is the hardest part of the song other than the solo its extremely 
to finger and it took me almost 15 minutes to get the notes right but it’s the only exact 
I’ve seen of it. It might take a long time to get it under your fingers. Practice is the key here.
||---------------------------------||----------------------------------||x4
||---------------------------------||----------------------------------||
||o--------------------------------||---------------------------------o||
||o----------8----8-7----7-6----6--||----------8----8-7----7-6-7-6-5--o||
||---5-8---7--5-7----5-7-----5-7---||--5-8---7--5-7----5-7-------------||
||-------0-------------------------||------0---------------------------||


Rhythm Intro pt.2 Simple whole notes and a little lick at the end to match the lead
||---------------|------------------||x2
||---------------|------------------||
||o--------------|-----------------o||
||o-0------2-----|0-----2--6-7-6-5-o||
||--0------2-----|0-----2-----------||
||--0------2-----|0-----2-----------||

Melody

Here’s the first of three variations for the melody

Lead Guitar and Synthesizer .Extremely melodic. Try to play it as connected as possible 
overlapping notes
|---------------------------|-------------------------|x4
|---------------------------|-------------------------|
|-14-11----13-------11------|-11------11--13------13--|
|-------11----14-11----11---|------12----------14-----|
|---------------------------|---12----------14--------|
|---------------------------|-------------------------|


Rhythm Guitar .Punk Rock sounding harmony for the melody
|---------------------------|-------------------------|
|---------------------------|-------------------------|
|---------------------------|-------------------------|
|-4--------2--------4-------|-0-----------2-----------|
|-4--------2--------4-------|-0-----------2-----------|
|-4--------2--------4-------|-0-----------2-----------|

Break Down

Rhythm Guitar plays the first time then Lead Guitar jumps in for the second time
Rhythm Guitar
|-----------------|-----------------|-----------------|-----------------|
|-----------------|-----------------|-----------------|-----------------|
|-----------------|-----------------|-----------------|-----------------|
|-----------------|-----------------|-----------------|-----------------|
|-----------------|-----------------|-3p2-2-3p2-2-3p2-|-3p2-6p5-3p2-1-1-|
|-3p2-2-3p2-2-3p2-|-3p2-6p5-3p2-1-1-|-3p2-2-3p2-2-3p2-|-3p2-6p5-3p2-1-1-|

Lead Guitar
|-----------------|-----------------|-----------------|-----------------|
|-----------------|-----------------|-----------------|-----------------|
|-----------------|-----------------|-----------------|-----------------|
|-----------------|-----------------|-----------------|-----------------|
|-----------------|-----------------|-3p2-2-3p2-2-3p2-|-3p2-6p5-3p2-1-1-|
|-----------------|-----------------|-3p2-2-3p2-2-3p2-|-3p2-6p5-3p2-1-1-|

Verse

Lead and Rhythm
||----------------|-----------------|------------------|---------------||
||----------------|-----------------|------------------|---------------||
||o---------------|--------(P.H.)[7]|------------------|--------------o||
||o---------------|--------------[7]|----------------5-|---7-5-3-5-7--o||
||-----3------6p2-|-----2/3---------|----------------3-|---------------||
||-0-0-3--0-0-6p2-|-0-0-2/3--0-0----|-0-0-2h3--0-0-0---|---------------||

Bridge (variation 1)

Lead Guitar
|-----------|-----------|---------------|---------------|
|-----------|-----------|---------------|---------------|
|-5---5---5-|--5---5--6-|---------------|-------------5-|
|-5---5---5-|--5---5--6-|-7-7----7-7----|------5-3-3-3--|
|-3---3---3-|--3---3--4-|-----5-5---5-5-|-3-3-3---------|
|-----------|-----------|---------------|---------------|

Rhythm Guitar
|-----------|-----------|---------------|---------------|
|-----------|-----------|---------------|---------------|
|-5---5---5-|--5---5--6-|---------------|----5------5---|
|-5---5---5-|--5---5--6-|-------7-----7-|-5------7------|
|-3---3---3-|--3---3--4-|-5-5-5--5-5-5--|---3--3---3—-3-|
|-----------|-----------|---------------|---------------|

|-----------|-----------|-----------------|-----------|
|-----------|-----------|-----------------|-----------|
|-5---5---5-|--5---5—-6-|-----------------|-----------|
|-5---5---5-|--5---5--6-|-----------------|-7\\-------|
|-3---3---3-|--3---3--4-|-5---5---4---4---|-5\\-------|
|-----------|-----------|---0---0---0---0-|-----------|
                                .   .   .   .


Verse

Lead and Rhythm
||----------------|-----------------|------------------|---------------||
||----------------|-----------------|------------------|---------------||
||o---------------|--------(P.H.)[7]|------------------|--------------o||
||o---------------|--------------[7]|----------------5-|---7-5-3-5-7--o||
||-----3------6p2-|-----2/3---------|----------------3-|---------------||
||-0-0-3--0-0-6p2-|-0-0-2/3--0-0----|-0-0-2h3--0-0-0---|---------------||Bridge

Bridge (variation 2)

Lead Guitar
|-----------|-----------|---------------|---------------|
|-----------|-----------|---------------|---------------|
|-5---5---5-|--5---5--6-|---------------|-------------5-|
|-5---5---5-|--5---5--6-|-7-7----7-7----|------5-3-3-3--|
|-3---3---3-|--3---3--4-|-----5-5---5-5-|-3-3-3---------|
|-----------|-----------|---------------|---------------|
Rhythm Guitar
|-----------|-----------|---------------|---------------|
|-----------|-----------|---------------|---------------|
|-5---5---5-|--5---5--6-|---------------|----5------5---|
|-5---5---5-|--5---5--6-|-------7-----7-|-5------7------|
|-3---3---3-|--3---3--4-|-5-5-5--5-5-5--|---3--3---3—-3-|
|-----------|-----------|---------------|---------------|

Lead Guitar
|-----------------------------------------------------------------|
|-----------------------------------------------------------------|
|-------------------------------------------------6---6---4---4---|
|---------------------------------4---4---6---6-----6---6---4---4-|
|-5---5---4---4---8---8---8---7-----5---5---4---4-----------------|
|---0---0---0---0---0---0---0---0---------------------------------|
Rhythm Guitar
|-----------------------------------------------------------------|
|-----------------------------------------------------------------|
|-----------------------------------------------------------------|
|-----------------------------------------------------------------|
|-5---5---4---4---8---8---8---7---9---9---7---7---14--14--12--12--|
|---0---0---0---0---0---0---0---0---0---0---0---0---0---0---0---0-|


Melody

Here’s the first of three variations for the melody

Lead Guitar and Synthesizer .Extremely melodic. Try to play it as connected as possible 
overlapping notes. Sweep the notes in the last measure
|---------------------------|-------------------------|x4
|---------------------------|-------------------------|
|-5--2-----4---------2------|-2--------2---4--------4-|
|-------2-----5---2-----2---|-------3------------5----|
|---------------------------|----3------------5-------|
|---------------------------|-------------------------|

Rhythm Guitar .Punk Rock sounding harmony for the melody
|---------------------------|-------------------------|
|---------------------------|-------------------------|
|---------------------------|-------------------------|
|-7--------5--------7-------|-3-----------5-----------|
|-7--------5--------7-------|-3-----------5-----------|
|-7--------5--------7-------|-3-----------5-----------|

Keyboard solo
||----------------|-----------------|------------------|---------------||
||----------------|-----------------|------------------|---------------||
||o---------------|--------(P.H.)[7]|------------------|--------------o||
||o---------------|--------------[7]|----------------5-|---7-5-3-5-7--o||
||-----3------6p2-|-----2/3---------|----------------3-|---------------||
||-0-0-3--0-0-6p2-|-0-0-2/3--0-0----|-0-0-2h3--0-0-0---|---------------||

pre chorus
|-----------------------------------------------------------------|
|-----------------------------------------------------------------|
|-------------------------------------------------6---6---4---4---|
|---------------------------------4---4---6---6-----6---6---4---4-|
|-5---5---4---4---8---8---8---7-----5---5---4---4-----------------|
|---0---0---0---0---0---0---0---0---------------------------------|
Chorus
|-----------------|-----------------|-----------------|-----------------|
|-----------------|-----------------|-----------------|-----------------|
|-----------------|-----------------|-----------------|-----------------|
|-7-------10------|-3-------5-------|-7-------5-------|-3------2--------|
|-7-------10------|-3-------5-------|-7-------5-------|-3------2--------|
|-7-------10------|-3-------5-------|-7-------5-------|-3------2--------|

Melody

Here’s the first of three variations for the melody

Lead Guitar and Synthesizer .Extremely melodic. Try to play it as connected as possible 
overlapping notes. Sweep the notes in the last measure
|---------------------------|-------------------------|x4
|---------------------------|-------------------------|
|-7--4-----6---------4------|-4--------4---6--------6-|
|-------4-----7---4-----4---|-------5------------7----|
|---------------------------|----5------------7-------|
|---------------------------|-------------------------|

Rhythm Guitar .Punk Rock sounding harmony for the melody
|---------------------------|-------------------------|
|---------------------------|-------------------------|
|---------------------------|-------------------------|
|-9--------7--------9-------|-5-----------7-----------|
|-9--------7--------9-------|-5-----------7-----------|
|-9--------7--------9-------|-5-----------7-----------|


SOLO. Its extremely long and complicated I have notations above to help you out

Pull whammy up…… whammy dive………All Sixteenth Notes
|-----------/-|--------\-----|------------------------------9-11{12-11-9-11-12-9-14-9}x2|
|----------/--|---------\----|----------------------9-10-12-----------------------------|
|-(9)N.H.-/---|-[6]P.H.--\---|-----------6-8-8-9-11-------------------------------------|
|--------/----|-----------\--|------6-7-9-----------------------------------------------|
|-------/-----|------------\-|-6-7-9----------------------------------------------------|
|------/------|-------------\|----------------------------------------------------------|

………bend………………………………release.……………………bend……………………release…………whammy up
|-[14]P.H.---T19—---po14-----T19---po14---T19--—po14-----[14]P.H.-/-Y---/--P--/---------|
|----/..(hold bend).....\--------------/(hold bend)\-------------/-M---/--U--/----------|
|---/--------------------\------------/-------------\-----------/-M---/--L--/-----------|
|--/----------------------\----------/---------------\---------/-A---/--L--/------------|
|-------------------------------------------------------------/-H---/--U--/-------------|
|------------------------------------------------------------/-W---/--P--/--------------|

All Triplets
|-24-22-20------------------------------------------------------------------------------|
|----------22-20-18---------------------------------------------------------------------|
|-------------------21-19-17------------------------------------------------------------|
|---------------------------19-17-15-------15--------[17]P.H.---------------------------|
|------------------------------------19-17---19-17-15-----------------------------------|
|---------------------------------------------------------------------------------------|

Eight Notes………………………………………………………sixteenth notes
|----------------------------22|--------------------------------------------------------|
|--------------------22--20----|-18-17-20-18-17-----------------------------------------|
|--------21--17~~19------------|----------------19-17-15-14-----15-14-------------------|
|----19------------------------|-----------------------------17--------17-15-14-15------|
|17----------------------------|--------------------------------------------------------|
|------------------------------|--------------------------------------------------------|

Triplets
|---------------------------------------------------------------------------------------|
|---------------------------------------------------------------------------------------|
|----14----15-14-17-15-14-------14------------------------------------------------------|
|-15----17----------------17-15----17-15-14-17-15-14------------------------------------|
|----------------------------------------------------17-15-13-17-16-15-13---------------|
|---------------------------------------------------------------------------------------|

Sixteenth note Sweep

|-----------------15--20--15---------------15--20--15--20--15----20--15--12-----12------|
|--------------17------------17----------17-------------------17-------------13----13--8|
|----------17-------------------17----17------------------------------------------------|
|------17--------------------------17---------------------------------------------------|
|15-19----------------------------------------------------------------------------------|
|---------------------------------------------------------------------------------------|

Sixteenth note Sweep(alternate fingering)
………………………………………………………tap………………………………………………………………tap…………tap…………………………tap
|------------12--15--20--15--12---------12--15--20--15--20--15--12--20--15--12----12----|
|---------13-------------------13----13---------------------------------------13----13-8|
|------12-------------------------12----------------------------------------------------|
|---14----------------------------------------------------------------------------------|
|15-------------------------------------------------------------------------------------|
|---------------------------------------------------------------------------------------|

|--13-------13---17--22--21--20-----|
|--------15-------------------------|
|-----14----------------------------|
|-----------------------------------|
|-----------------------------------|
|-----------------------------------|

Bridge (variation 3)

Lead Guitar
||------------|-----------|---------------|----------------||x3
||------------|-----------|---------------|----------------||
||o-5---5---5-|--5---5--6-|---------------|-------------5-o||
||o-5---5---5-|--5---5--6-|-7-7----7-7----|------5-3-3-3--o||
||--3---3---3-|--3---3--4-|-----5-5---5-5-|-3-3-3----------||
||------------|-----------|---------------|----------------||

Rhythm Guitar
||------------|-----------|---------------|----------------||x3
||------------|-----------|---------------|----------------||
||o-5---5---5-|--5---5--6-|---------------|----5------5---o||
||o-5---5---5-|--5---5--6-|-------7-----7-|-5------7------o||
||--3---3---3-|--3---3--4-|-5-5-5--5-5-5--|---3--3---3—-3--||
||------------|-----------|---------------|----------------||

Lead and Rhythm Guitar
|--------------------------------|----------------------------------|
|--------------------------------|----------------------------------|
|--------------------------------|----------------------------------|
|--------------------------------|-----------------------7-6-7-6-5--|
|-5---5---4---4---8---8---8---7--|-5---5---4---4---8-5--------------|
|---0---0---0---0---0---0---0---0|---0---0---0---0-----0------------|

Lead Guitar
|-----------------------------------------------------------------|
|-----------------------------------------------------------------|
|-------------------------------------------------6---6---4---4---|
|---------------------------------4---4---6---6-----6---6---4---4-|
|-5---5---4---4---8---8---8---7-----5---5---4---4-----------------|
|---0---0---0---0---0---0---0---0---------------------------------|


Rhythm Guitar
|-----------------------------------------------------------------|
|-----------------------------------------------------------------|
|-----------------------------------------------------------------|
|-----------------------------------------------------------------|
|-5---5---4---4---8---8---8---7---9---9---7---7---14--14--12--12--|
|---0---0---0---0---0---0---0---0---0---0---0---0---0---0---0---0-|


CHORUS


|-----------------|-----------------|-----------------|-----------------|
|-----------------|-----------------|-----------------|-----------------|
|-----------------|-----------------|-----------------|-----------------|
|-7-------10------|-3-------5-------|-7-------5-------|-3------2--------|
|-7-------10------|-3-------5-------|-7-------5-------|-3------2--------|
|-7-------10------|-3-------5-------|-7-------5-------|-3------2--------|

OUTRO


|--------------------------------|----------------------------------|
|--------------------------------|----------------------------------|
|--------------------------------|----------------------------------|
|--------------------------------|----------------------------------|
|--------------------------------|----------------------------------|
|-0000-0-0000-0-0000-1-1-0000-1-1|-0000-0-0000-0-0000-1-1-0000-1-1--|

|--------------------------------|----------------------------------|
|--------------------------------|----------------------------------|
|--------------------------------|----------------------------------|
|--------------------------------|----------------------------------|
|--------------------------------|----------------------------------|
|-0000-0-0000-0-0000-1-1-0000-1-1|-0000-0-0000-1100001100001100-2^--|
Tap to rate this tab
# A B C D E F G H I J K L M N O P Q R S T U V W X Y Z