Song name
# A B C D E F G H I J K L M N O P Q R S T U V W X Y Z

Children Of Bodom - Punch Me I Bleed tab

I apologise for not tabbing the whole song...more to come when i update this. sorry if its a bit unclear. BODOM RULE.

Dropped C Tuning (C G C F A D)

Alexi Laiho (Lead Guitar)
Roope Latvala (Rhythm Guitar)

Intro
Lead
|--------------------------------------------------------------------------|
|--------------------------------------------------------------------------|
|----------------9~------------------9~------------------------------------|
|----------10---9~------------10---9~--------------------------------------|
|------7---------------------7-------------7-8-7----7-8-10-----------------|
|--0---------------------0------------------------10-----------------------|

|-----------------------------------------------------------------------|
|-----------------------------------------------------------------------|
|----------------9~-----------------------------------------------------|
|----------10---9~--------------------------------------------2---------|
|------7-----------------------------5---8-------5---8-----0------------|
|--0------------------------5---7------------6-----------2--------------|

Note: Roope comes in now
Lead
|--------------------------------------------------------------------------|
|--------------------------------------------------------------------------|
|----------------9~------------------9~------------------------------------|
|----------10---9~------------10---9~--------------------------------------|
|------7---------------------7-------------7-8-7----7-8-10-----------------|
|--0---------------------0------------------------10-----------------------|

Rhythm
|----------------------------------------------------------------------|
|----------------------------------------------------------------------|
|----------------------------------------------------------------------|
|--0-------------------------------------------------------------------|
|--0-------------------------------------------------------------------|
|--0-------------------------------------------------------------------|

Lead
|--------------------------------------------------------------------|
|--------------------------------------------------------------------|
|----------------9~--------------------------------------------------|
|----------10---9~-------/10---7-------7---5---7---5-----------------|
|------7-----------------------------8--------------------8---7------|
|--0-----------------------------------------------------------------|

Rhythm
|--------------------------------------------------------------|
|--------------------------------------------------------------|
|--------------------------------------------------------------|
|---------------------------/7---------------------------------|
|--0--0-------------------------8---5---8---7---8---7---5---3--|
|--0--0--------------------------------------------------------|

Lead
|--------------------------------------------------------------------------|
|--------------------------------------------------------------------------|
|----------------9~------------------9~------------------------------------|
|----------10---9~------------10---9~--------------------------------------|
|------7---------------------7-------------7-8-7----7-8-10-----------------|
|--0---------------------0------------------------10-----------------------|

Rhythm
|-------------------------------------------------------------------------------|
|-------------------------------------------------------------------------------|
|-------------------------------------------------------------------------------|
|-------------------------------------------------------------------5--5--5--5--|
|--0---0---0---0---0---0---0---0---0---0---0---0---0---0-0---3--3--3--3---------|
|--0---0---0---0---0---0---0---0---0---0---0---0---0---0-0----------------------|

Lead
|-----------------------------------------------------------------------|
|-----------------------------------------------------------------------|
|----------------9~-----------------------------------------------------|
|----------10---9~--------------------------------------------2---------|
|------7-----------------------------5---8-------5---8-----0------------|
|--0------------------------5---7------------6-----------2--------------|

Rhythm
|----------------------------------------------------------------------------|
|----------------------------------------------------------------------------|
|----------------------------------------------------------------------------|
|-------------------------------------------------------------------------2--|
|-----------------------------------------------5---8-------5---8-----0------|
|--0---0---0---0---0---0---0---0---5---7------------6-----------2------------|

Lead
|--------------------------------------------------------------------------------|
|--------------------------------------------------------------------------------|
|----------------9~-------------------------9~-----------------------------------|
|----------10---9~-------------------10---9~-------------------------------------|
|------7-------------0-0-0-0------7-------------7-8-7----7-8-10------------------|
|--0-----------------0-0-0-0--0------------------------10------------------------|

Rhythm
|-------------------------------------------------------------------------------|
|-------------------------------------------------------------------------------|
|-------------------------------------------------------------------------------|
|-------------------------------------------------------------------5--5--5--5--|
|--0---0---0---0---0---0---0---0---0---0---0---0---0---0-0---3--3--3--3---------|
|--0---0---0---0---0---0---0---0---0---0---0---0---0---0-0----------------------|

Lead
|-----------------------------------------------------------------------|
|-----------------------------------------------------------------------|
|----------------9 ~----------------------------------------------------|
|----------10---9 ~-------/10---7-------7---5---7---5-------------------|
|------7--------------------------------8--------------------8---7------|
|--0--------------------------------------------------------------------|

Rhythm
|----------------------------------------------------------|
|----------------------------------------------------------|
|----------------------------------------------------------|
|------------------------/7--------------------------------|
|--0---0---0---0---0--------8---5---8---7---8---7---5---3--|
|--0---0---0---0---0---------------------------------------|


Verse 1
Lead
|--------------------------------------------------------------------------------|
|--------------------------------------------------------------------------------|
|--------------------------------------------------------------------------------|
|----------5/6--5------------------------5/6--5--------------------------5/6--5--|
|--0--0----------------0-----0--0--0-----------------0---0---0--0--0-------------|
|--0--0---5/6--5------0-----0--0--0---5/6--5------0---0---0--0--0---5/6--5-------|

Rhythm
|--------------------------------------------------------------------------------|
|--------------------------------------------------------------------------------|
|--------------------------------------------------------------------------------|
|----------5/6--5------------------------5/6--5--------------------------5/6--5--|
|--0--0----------------0-----0--0--0-----------------0---0---0--0--0-------------|
|--0--0---5/6--5------0-----0--0--0---5/6--5------0---0---0--0--0---5/6--5-------|

Lead
|---------------------------------------------------|
|---------------------------------------------------|
|-----------------------------/10---7---------------|
|----------------------------------------6----------|
|------------5---8-------5--------------------------|
|---5---7------------6------------------------------|

Rhythm
|----------------------------------------------------|
|----------------------------------------------------|
|----------------------------------------------------|
|-----------------------------/9---------9-----------|
|------------5---8-------5--------11-----------------|
|---5---7------------6-------------------------------|

Lead
|---------------------------------------------------------------------------------------------|
|---------------------------------------------------------------------------------------------|
|---------------------------------------------------------------------------------------------|
|---5/6---5---------------------5/6---5------------------------5/6---5------------------------|
|---------------0----0--0--0----------------0------------5~----------------0---0--0--0--0--0--|
|---5/6---5----0----0--0--0---5/6---5----0---0--0--0-------5/6---5-----0---0--0--0--0--0------|




Rhythm
|---------------------------------------------------------------------------------------------|
|---------------------------------------------------------------------------------------------|
|---------------------------------------------------------------------------------------------|
|---5/6---5---------------------5/6---5------------------------5/6---5------------------------|
|---------------0----0--0--0----------------0------------8~----------------0---0--0--0--0--0--|
|---5/6---5----0----0--0--0---5/6---5----0---0--0--0-------5/6---5-----0---0--0--0--0--0------|

Lead
|---------------------------------------------|
|-------------------------8---5---------------|
|----------------2---5------------------------|
|-------2---5---------------------------------|
|---5-----------------------------------------|
|---------------------------------------------|

Rhythm
|---------------------------------------------|
|---------------------------------------------|
|------------------------5--------------------|
|-------0---3-------2-------7-----------------|
|---1-----------3-----------------------------|
|---------------------------------------------|


Bit before Pre Chorus

Lead
|--------------------------------------------------------------------------|
|--------------------------------------------------------------------------|
|----------------9~------------------9~------------------------------------|
|----------10---9~------------10---9~--------------------------------------|
|------7---------------------7-------------7-8-7----7-8-10-----------------|
|--0---------------------0------------------------10-----------------------|

Rhythm
|-------------------------------------------------------------------------------|
|-------------------------------------------------------------------------------|
|-------------------------------------------------------------------------------|
|-------------------------------------------------------------------5--5--5--5--|
|--0---0---0---0---0---0---0---0---0---0---0---0---0---0-0---3--3--3--3---------|
|--0---0---0---0---0---0---0---0---0---0---0---0---0---0-0----------------------|

Lead
|--------------------------------------------------------------------------|
|-------------------------------------------------/9-----------------------|
|-----------------9~----------------------------------9--------------------|
|-----------10---9~--------------------------------------9-----------------|
|-------7-----------------------5---8-------5------------------------------|
|---0------------------5---7------------6----------------------------------|

Rhythm
|-----------------------------------------------------------------------------|
|-----------------------------------------------------------------------------|
|-------------------------------------------------------/9--------------------|
|------------------------------------------------------------9----------------|
|---0--0--0--0--0--0--0------------5---8-------5------------9-----------------|
|---0--0--0--0--0--0--0---5---7------------6----------------------------------|

Lead
|-----------------------------------------------------------------------|
|-----------------------------------------------------------------------|
|----------------9 ~----------------------------------------------------|
|----------10---9 ~-------/10---7-------7---5---7---5-------------------|
|------7--------------------------------8--------------------8---7------|
|--0--------------------------------------------------------------------|

Rhythm
|----------------------------------------------------------|
|----------------------------------------------------------|
|----------------------------------------------------------|
|------------------------/7--------------------------------|
|--0---0---0---0---0--------8---5---8---7---8---7---5---3--|
|--0---0---0---0---0---------------------------------------|

Pre Chorus

Lead
|--------------------------------------------------------------------------------------------|
|--------------------------------------------------------------------------------------------|
|--------------------------------------------------------------------------------------------|
|------------------------------------------------------5--5--5--5--5----------5--5--5--5--5--|
|---0--0--0--0--0----------0--0--0--0--0----------3--3--3--3--3----------3--3--3--3--3-------|
|---0--0--0--0--0----------0--0--0--0--0-----------------------------------------------------|

Rhythm
|--------------------------------------------------------------------------------------------|
|--------------------------------------------------------------------------------------------|
|--------------------------------------------------------------------------------------------|
|------------------------------------------------------5--5--5--5--5----------5--5--5--5--5--|
|---0--0--0--0--0----------0--0--0--0--0----------3--3--3--3--3----------3--3--3--3--3-------|
|---0--0--0--0--0----------0--0--0--0--0-----------------------------------------------------|

Lead
|--------------------------------------------------------------------------------------------------------------------|
|--------------------------------------------------------------------------------------------------------------------|
|---7--7---------9--9------------7--7---------9--9--10--10---7--7---------9--9------------7--7---------9--9--10--10--|
|----------7--7---------10--10---------7--7---------------------------7--7---------10--10---------7--7---------------|
|--------------------------------------------------------------------------------------------------------------------|
|--------------------------------------------------------------------------------------------------------------------|



Rhythm
|--------------------------------------------------------------------------------------------|
|--------------------------------------------------------------------------------------------|
|--------------------------------------------------------------------------------------------|
|------------------------------------------------------5--5--5--5--5----------5--5--5--5--5--|
|---0--0--0--0--0----------0--0--0--0--0----------3--3--3--3--3----------3--3--3--3--3-------|
|---0--0--0--0--0----------0--0--0--0--0-----------------------------------------------------|

Lead
|-----------------------------------------------------------------------------------------------------------|
|-----------------------------------------------------------------------------------------------------------|
|---5--5---------7--7---------5--5---------7--7--8--8----5--5---------7--7---------5--5---------7--7--8--8--|
|----------5--5---------8--8---------5--5-------------------------5--5---------8--8---------5--5------------|
|-----------------------------------------------------------------------------------------------------------|
|-----------------------------------------------------------------------------------------------------------|

Rhythm
|----------------------------------------------------------------------------------------------------------|
|----------------------------------------------------------------------------------------------------------|
|---------------------------------------------------------------------------------------------5--x--x---8--|
|------------------------------------------------------5--5--5--5--5----------5--5--5--5-----x--x----------|
|---0--0--0--0--0----------0--0--0--0--0----------3--3--3--3--3----------3--3--3--3------------------------|
|---0--0--0--0--0----------0--0--0--0--0-------------------------------------------------------------------|

Chorus

Lead
|---------------------------------------------------------------------------|
|---------------------------------------------------------------------------|
|---------5------------5-----------5------------5-----------5------------5--|
|------3-----3-----5-----5-----3-----3-----5-----5-----3-----3-----5-----5--|
|---1-----------3------------5-----------3------------1-----------3---------|
|---------------------------------------------------------------------------|

Rhythm
|-----------------------------------------------------------------------------|
|-----------------------------------------------------------------------------|
|-----------------------------------------------------------------------------|
|------2--3--------2--3--------2--3--2-----2--3--2-----2--3--------2--3-------|
|---1--------1--3--------3--5------------3------------1--------1--3--------3--|
|-----------------------------------------------------------------------------|

Lead
|--------------------------------------------|
|--------------------------------------------|
|--------------------------------------------|
|----------------2/3------------------2------|
|---0--0----0----------0--0---2--3-----2--3--|
|---0--0----0----------0--0------------------|



Rhythm
|--------------------------------------------|
|--------------------------------------------|
|--------------------------------------------|
|---------------------------------------3----|
|---0--0----0---3/5----0--0---3--5-----3--5--|
|---0--0----0-----------0--0-----------------|

Lead
|------------------------------------------------------------------------------|
|------------------------------------------------------------------------------|
|---------5------------5-----------5------------5-----------5------------3--2--|
|------3-----3-----5-----5-----3-----3-----5-----5-----3-----3-----5-----------|
|---1-----------3------------5-----------3------------1-----------6------------|
|------------------------------------------------------------------------------|

Rhythm
|---------------------------------------------------------------------------6--5--|
|---------------------------------------------------------------------------------|
|------------------------------------------------------------------------8--------|
|------2--3--------2--3--------2--3--2-----2--3--2-----2--3-----5-----------------|
|---1--------1--3--------3--5------------3------------1--------1------------------|
|---------------------------------------------------------------------------------|

Lead
|--------------------------------|
|--------------------------------|
|----------------------------15--|
|----------------2/3-------------|
|---0--0----0----------0---------|
|---0--0----0----------0---------|

Rhythm
|------------------------------|
|------------------------------|
|------------------------------|
|------------------------------|
|---0--0----0---3/5----0---0---|
|---0--0----0-----------0---0--|

Verse 2

Lead
|-----------------------------------------------------------------------------------------|
|-----------------------------------------------------------------------------------------|
|-----------------------------------------------------------------------------------------|
|---5/6---5---------------------5/6---5-----------------------------5/6---5---------------|
|--------------0---0--0--0-----------------0---0--0---0--0--0----------------0---0--0--0--|
|---5/6---5---0---0--0--0-----5/6---5---0---0--0---0--0--0-----5/6---5---0---0--0--0------|



Rhythm
|-----------------------------------------------------------------------------------------|
|-----------------------------------------------------------------------------------------|
|-----------------------------------------------------------------------------------------|
|---5/6---5---------------------5/6---5-----------------------------5/6---5---------------|
|--------------0---0--0--0-----------------0---0--0---0--0--0----------------0---0--0--0--|
|---5/6---5---0---0--0--0-----5/6---5---0---0--0---0--0--0-----5/6---5---0---0--0--0------|

Lead
|--------------------------------------|
|-----------------------------6--5--6--|
|-----------------------------7--6--7--|
|--------------------------------------|
|------------5---8-------5-------------|
|---5---7------------6-----------------|

Rhythm
|--------------------------------------|
|-----------------------------7--6--7--|
|-----------------------------7--6--7--|
|--------------------------------------|
|------------5---8-------5-------------|
|---5---7------------6-----------------|

Lead
|-------------------------------------------------------------|
|-------------------------------------------------------------|
|-------------------------------------------------------------|
|---5/6---5---------------------5/6---5-----------------------|
|--------------0---0--0--0-----------------0---------------5--|
|---5/6---5---0---0--0--0-----5/6---5---0----0--0--0----------|

Rhythm
|-------------------------------------------------------------|
|-------------------------------------------------------------|
|-------------------------------------------------------------|
|---5/6---5---------------------5/6---5-----------------------|
|--------------0---0--0--0-----------------0---------------8--|
|---5/6---5---0---0--0--0-----5/6---5---0----0--0--0----------|

Lead
|----------------------------------------------------------|
|-----------------------------------------------------5/0--|
|----------------------------------------------2--5--------|
|---5/6---5----------------------------2--5----------------|
|--------------0---0--0--0--0-----5------------------------|
|---5/6---5---0---0--0--0--0-------------------------------|

Rhythm
|-------------------------------------------------------|
|-------------------------------------------------------|
|-------------------------------------------------------|
|---5/6---5----------------------------0--3-----2--7/0--|
|--------------0---0--0--0--0-----1---------3-----------|
|---5/6---5---0---0--0--0--0----------------------------|

Pre Chorus 2

Lead
|----------------------------------------------------------------------------------------------------------------------------|
|----------------------------------------------------------------------------------------------------------------------5--5--|
|---7--7---------9--9------------7--7---------9--9--10--10---5--5---------7--7------------5--5---------5--5------------------|
|----------7--7---------10--10---------7--7---------------------------5--5---------5--5------------5--5----------------------|
|----------------------------------------------------------------------------------------------------------------------------|
|----------------------------------------------------------------------------------------------------------------------------|

Rhythm
|-----------------------------------------------------------------------|
|-----------------------------------------------------------------------|
|-----------------------------------------------------------------------|
|---7--7--7--7--7--7--7--7----5--5--5--5--5--5--5--5--------------------|
|---5--5--5--5--5--5--5--5----3--3--3--3--3--3--3--3--------------------|
|-----------------------------------------------------------------------|

Lead
|-------------------------------------------------------------------------------------------------|
|-------------------------------------------------------------------------------------------------|
|---5--5---------7--7---------5--5---------7--7--9--9---7--7---------9--9------------10--9--7--7--|
|----------7--7---------7--7---------7--7------------------------7--7---------10--10--------------|
|-------------------------------------------------------------------------------------------------|
|-------------------------------------------------------------------------------------------------|

Rhythm
|--------------------------------------|
|--------------------------------------|
|--------------------------------------|
|---2--2--2--2--2--2--2--2-------------|
|---0--0--0--0--0--0--0--0-------------|
|--------------------------------------|

Lead
|---------------------------------------------------------|
|---------------------------------------------------------|
|---7--7---------9--9------------10--9--7--7--------------|
|----------7--7---------10--10----------------------------|
|---------------------------------------------------------|
|---------------------------------------------------------|

Rhythm
|----------------------------------------------|
|----------------------------------------------|
|----------------------------------------------|
|----------------------------------------------|
|---0--0--0--0--0----------8--------8----------|
|---0--0--0--0--0---0--0-----0--0--------------|



Lead
|----------------------------------------------------------------------------------------------------------------------------|
|----------------------------------------------------------------------------------------------------------------------5--5--|
|---7--7---------9--9------------7--7---------9--9--10--10---5--5---------7--7------------5--5---------5--5------------------|
|----------7--7---------10--10---------7--7---------------------------5--5---------5--5------------5--5----------------------|
|----------------------------------------------------------------------------------------------------------------------------|
|----------------------------------------------------------------------------------------------------------------------------|

Rhythm
|-----------------------------------------------------------------------|
|-----------------------------------------------------------------------|
|-----------------------------------------------------------------------|
|---7--7--7--7--7--7--7--7----5--5--5--5--5--5--5--5--------------------|
|---5--5--5--5--5--5--5--5----3--3--3--3--3--3--3--3--------------------|
|-----------------------------------------------------------------------|

Lead
|--------------------------------------------------------------------------------------|
|--------------------------------------------------------------------------------------|
|---5--5---------7--7---------5--5---------7--7--9--9--7--7---------9--9------------7--|
|----------7--7---------7--7---------7--7-----------------------7--7---------10--10----|
|--------------------------------------------------------------------------------------|
|--------------------------------------------------------------------------------------|

Rhythm
|---------------------------------------------------|
|---------------------------------------------------|
|---------------------------------------------------|
|---2--2--2--2--2--2--2--2--------------------------|
|---0--0--0--0--0--0--0--0---0----------------------|
|--------------------------------0----/12-----------|

Chorus 2

Lead
|---------------------------------------------------------------------------|
|---------------------------------------------------------------------------|
|---------5------------5-----------5------------5-----------5------------5--|
|------3-----3-----5-----5-----3-----3-----5-----5-----3-----3-----5-----5--|
|---1-----------3------------5-----------3------------1-----------3---------|
|---------------------------------------------------------------------------|

Rhythm
|-----------------------------------------------------------------------------|
|-----------------------------------------------------------------------------|
|-----------------------------------------------------------------------------|
|------2--3--------2--3--------2--3--2-----2--3--2-----2--3--------2--3-------|
|---1--------1--3--------3--5------------3------------1--------1--3--------3--|
|-----------------------------------------------------------------------------|



Lead
|--------------------------------------------|
|--------------------------------------------|
|--------------------------------------------|
|----------------2/3------------------2------|
|---0--0----0----------0--0---2--3-----2--3--|
|---0--0----0----------0--0------------------|

Rhythm
|--------------------------------------------|
|--------------------------------------------|
|--------------------------------------------|
|---------------------------------------3----|
|---0--0----0---3/5----0--0---3--5-----3--5--|
|---0--0----0-----------0--0-----------------|

Lead
|------------------------------------------------------------------------------|
|------------------------------------------------------------------------------|
|---------5------------5-----------5------------5-----------5------------3--2--|
|------3-----3-----5-----5-----3-----3-----5-----5-----3-----3-----5-----------|
|---1-----------3------------5-----------3------------1-----------6------------|
|------------------------------------------------------------------------------|

Rhythm
|---------------------------------------------------------------------------6--5--|
|---------------------------------------------------------------------------------|
|------------------------------------------------------------------------8--------|
|------2--3--------2--3--------2--3--2-----2--3--2-----2--3-----5-----------------|
|---1--------1--3--------3--5------------3------------1--------1------------------|
|---------------------------------------------------------------------------------|

Lead
|--------------------------------------------|
|--------------------------------------------|
|--------------------------------------------|
|----------------2/3------------------2------|
|---0--0----0----------0--0---2--3-----2--3--|
|---0--0----0----------0--0------------------|

Rhythm
|--------------------------------------------|
|--------------------------------------------|
|--------------------------------------------|
|---------------------------------------3----|
|---0--0----0---3/5----0--0---3--5-----3--5--|
|---0--0----0-----------0--0-----------------|



Keyboard Unison

Lead
|------------------------------------------------------------|
|------6--10--8---------------6--8b10--8--5------------------|
|---7-------------10--9----7--------------------5------------|
|------------------------------------------------------------|
|------------------------------------------------------------|
|------------------------------------------------------------|

Rhythm
|---------------------------------------------------------------------------------------------------------------------|
|---------------------------------------------------------------------------------------------------------------------|
|---------------------------------------------------------------------------------------------------------------------|
|---------------------------------------------------------------------------------------------------------------------|
|---------------------------------------------------------------------------------------------------------------------|
|---------------------------------------------------------------------------------------------------------------------|

|---------------------------------------------------------------------------------------------------------------------|
|---------------------------------------------------------------------------------------------------------------------|
|---------------------------------------------------------------------------------------------------------------------|
|---------------------------------------------------------------------------------------------------------------------|
|---------------------------------------------------------------------------------------------------------------------|
|---------------------------------------------------------------------------------------------------------------------|


|---------------------------------------------------------------------------------------------------------------------|
|---------------------------------------------------------------------------------------------------------------------|
|---------------------------------------------------------------------------------------------------------------------|
|---------------------------------------------------------------------------------------------------------------------|
|---------------------------------------------------------------------------------------------------------------------|
|---------------------------------------------------------------------------------------------------------------------|
Tap to rate this tab
# A B C D E F G H I J K L M N O P Q R S T U V W X Y Z