Guitaretab - guitar tabs
Song name
# A B C D E F G H I J K L M N O P Q R S T U V W X Y Z

Children Of Bodom - Repent tab

Children Of Bodom
Repent (Cryhavoc Cover)

INTRO:

|-----------------------------------------------|
|2-2-2-5-5---5-4---4-2---4-4-4-5-5---4----4-5-4-|
|2-2-2-2--2-----2------2-2-2-2-2--5-4-4-2-2-2-2-|
|0-0-0-0---01----01------0-0-0------------------|
|-----------------------------------------------|
|-----------------------------------------------|


BRIDGE:

|--6-----5-----6-----8-7------------|
|5-6-5-4-5-4-5-6-5-7-8-7-4-4-2-4-5--|
|5-6-5-4-5-4-5-6-5-7-8-7-4-4-2-4-5--|
|5---5-4---4-5---5-7-----4-4-2-4-5--|
|-----------------------------------|
|-----------------------------------|


VERSE:

|------------------------------------------------------------------|
|------------------------7-------------------------------3---------|
|-9-x-8-6-9-x-8-6-9-x-8-9-9-8h9p8-5-x-4-3-5-x-4-3-5-x-4-5-5-4h5p4--|
|------------------------------------------------------------------|
|------------------------------------------------------------------|
|------------------------------------------------------------------|


CHORUS:

[ Tab from: http://www.guitaretab.com/c/children-of-bodom/96101.html ]
|-----------------------------------------------|
|-----------------------------------------------|
|---6h8p6---4h6p4----------6h8p6---4h6p4--------|
|-9-------8-------6-6/2--9-------8-------6-6-8--|
|-----------------------------------------------|
|-----------------------------------------------|


SOLO:


|--------------------------------------------------|
|--------------------------------14----14-16-14-13-|
|-15-15-17^-15-13----17-17-15h17----17-------------|
|-----------------15-------------------------------|
|--------------------------------------------------|
|--------------------------------------------------|


|-----------------------------------------------------------------------------|
|-----------------------------------------------------------------------------|
|-15-15-17^-15-13----11-13^-11-9--6h8p6h8p6h8p6h8p6--8h10p8h10p8h10p8h10p8----|
|------------------14---------------------------------------------------------|
|-----------------------------------------------------------------------------|
|-----------------------------------------------------------------------------|


|----------------------------|
|----------------------------|
|-10h12p10h12p10h12p10h12p10-|
|----------------------------|
|----------------------------|
|----------------------------|
Related for Repent tab
×
Repent