Song name
# A B C D E F G H I J K L M N O P Q R S T U V W X Y Z

Chilliwack - Fly At Night tab

Solos: FLY AT NIGHT
Artist: CHILLIWACK
Album: DREAMS, DREAMS, DREAMS

Tab by Devin Miller
email irish__nugget@hotmail.com

LEGEND
| xb(y) bend from x to y
| h     hammer-on
| p     pull-off
| \     slide down to (slide out, if no note after)
| /     slide up to
| .     staccato note (quick, don't let ring)
| ~     vibrato (usually with whammy bar)

-----------------------SOLO#1-----------------------

(Hint: If you have windows media player, try learning it on
"Play -> Play Speed -> Slow", it kinda helps)

e|---------------------------------------------|
B|-10-----------8------------7-----------------|
G|-12b(14)~~----10b(12)~~----9b(11)~~----11\---|
D|---------------------------------------------|
A|---------------------------------------------|
E|---------------------------------------------|

  -----------------------------------------------|
  -10-----------12------------15-----------------|
  -12b(14)~~----14b(16)~~~----17b(19)~~----17\---|
  -----------------------------------------------|
  -----------------------------------------------|
  -----------------------------------------------|

  ----------------------------------------------------------------|
  -----------------------------------------6h8p6---6h8-8b(10)r-6.-|
  -----------------------------5h7p5---5h7-------7----------------|
  -----------------5h7p5---5h7-------7----------------------------|
  -----5h7-5p0-5h7-------7----------------------------------------|
  -5h7------------------------------------------------------------|

  ----------------------------------------------------8---8------|
  -6h8b(10)r-6---6h8b(10)r-6---6h8b(10)r-6---6h8b(10)-------10p8-|
  -------------7-------------7-------------7---------------------|
  ---------------------------------------------------------------|
  ---------------------------------------------------------------|
  ---------------------------------------------------------------|

  --------------------8--8--8--8-8--8-8----------8-8-8-8-8----------|
  -----8------11b(13)--------------------11b(13)------------11b(13)-|
  -10-----10--------------------------------------------------------|
  ------------------------------------------------------------------|
  ------------------------------------------------------------------|
  ------------------------------------------------------------------|

  -8-8--8-8----------8-8--8---------8---------8------------------|
  -----------11b(13)--------11b(13)---11b(13)---11b(13)r-11b(13)-|
  ---------------------------------------------------------------|
  ---------------------------------------------------------------|
  ---------------------------------------------------------------|
  ---------------------------------------------------------------|

  -------------------------------------------------------------|
  -11b(13)-11b(13)-11b(13)-11b(13)-12b(15)~~~--13b(15)-13b(15)-|
  -------------------------------------------------------------|
  -------------------------------------------------------------|
  -------------------------------------------------------------|
  -------------------------------------------------------------|

  -10----------10----------10----------10---------10---------10-|
  ----13b(15)-----13b(15)-----13b(15)-----13b(15)----13b(15)----|
  --------------------------------------------------------------|
  --------------------------------------------------------------|
  --------------------------------------------------------------|
  --------------------------------------------------------------|

  -14b(15)~~~--14~~------------------------------------------|
  --------------------15----15--------------18.-20b(22)------|
  -----------------------17----/19~~\----/17-----------------|
  -----------------------------------------------------------|
  -----------------------------------------------------------|
  -----------------------------------------------------------|

  -------------------------------------------------------------|
  -20b(22)-----20b(22)----20b(22)--20b(22)--20b(22)--20b(22)---|
  -------------------------------------------------------------|
  -------------------------------------------------------------|
  -------------------------------------------------------------|
  -------------------------------------------------------------|

  --------------------------20b(22)~~~---(22)\-----|
  -(22)r20p18--------------------------------------|
  ------------19--19~~~\---------------------------|
  -------------------------------------------------|
  -------------------------------------------------|
  -------------------------------------------------|

 NOTE: (22)r20p18 means pre-bend to 22, release then pull off to 18


-----------------------SOLO#2-----------------------

e|-------------------------------------------------------|
B|------------------------------------7-8-8b(10)---8p7---|
G|-9b(11)--9p7---9b(11)--9p7---9b(11)-----------------9--|
D|-------------9-------------9---------------------------|
A|-------------------------------------------------------|
E|-------------------------------------------------------|

  -------------------------------------------------------|
  -8b(10)--8p7----7--------------------/10--10h12p10~~~--|
  -------------9-----9--7h9-7~~~~~\----------------------|
  -------------------------------------------------------|
  -------------------------------------------------------|
  -------------------------------------------------------|

  ---------------------|
  -12b(13)-12p10-12-10-|
  ---------------------|
  ---------------------|
  ---------------------|
  ---------------------| x4

  -(14)r12-----(14)r12-----(14)r12----12b(14)~~~\-|
  ----------10----------10---------10-------------|
  ------------------------------------------------|
  ------------------------------------------------|
  ------------------------------------------------|
  ------------------------------------------------|

  -/14-15-17-17--17-17-17--15-14-15/17-17~~------14.-|
  --------------------------------------------15-----|
  ---------------------------------------------------|
  ---------------------------------------------------|
  ---------------------------------------------------|
  ---------------------------------------------------|

  -17--15-14-15-14------------------14-17p14-------15--14h15p14----|
  -----------------15~~~---------15----------15.----------------17-|
  ----------------------------14-----------------------------------|
  -----------------------------------------------------------------|
  -----------------------------------------------------------------|
  -----------------------------------------------------------------|

  -14----------|
  ----15-17-13-|
  -------------|
  -------------|
  -------------|
  -------------|

   Tapping (pick-hand hits 15)
  -----------|
  -15p13p12--|
  -----------|
  -----------|
  -----------|
  -----------| x13

  ---------------------------------------------|
  -15~~~~~~~~~~~~------------------------------|
  ---------------------------------------------|
  ---------------------------------------------|
  ---------------------------------------------|
  ---------------------------------------------|

Well...those are them.  These text tabs are hard to write because
you can't put in note lengths.  But this is my best work at
transcribing the solo so it should put you in the right direction.
Good luck!

=====================================================================
Tap to rate this tab
# A B C D E F G H I J K L M N O P Q R S T U V W X Y Z