Song name
# A B C D E F G H I J K L M N O P Q R S T U V W X Y Z

Chimaira - Six tab

Artist - Chimaira
Album - Resurrection
Track - 4
Song - Six

Tuning - Drop C  CGCFAD
Tabbed By - soilborn


Hopefully I have made this easy enough to follow and not too long
but it is a long song.

/ - Slide up    \ - Slide down
h - Hammer on   p - Pull off
b - Bend        r - Release
. - Palm mute   X - Mute strings with fret hand


D|-------|
A|-------|
F|-------|
C|---X---|
G|---X---|
C|---X---|



Over bass intro...


 Guitar 1
D|-----4-----------|
A|---3---3---------|
F|-2-------2-------|
C|-----------0-----|
G|-------------0---|
C|---------------0-| x5



 Guitar 2
D|-----------------------------------------|
A|-----------------------------------------|
F|-----------------------------------------|
C|--------4-5--7--7h8--7--5-4----------4---|
G|-3-5-6-----------------------6-5--3----5-|
C|-----------------------------------------|


D|------------------------------5-7-8-10\--11\-|
A|--------------------------7-8----------------|
F|-------------------5--7-8--------------------|
C|--------4-5--7--8----------------------------|
G|-3-5-6---------------------------------------|
C|---------------------------------------------|


____________________________________________________________________________


 Guitar 1
 The next 4 parts are played in the following order:

 1, 2, 1, 3, 1, 4, 1, 3

D|--------------------------------------------|
A|-10h11p10-8-10--10h11p10-8-10--11h13-11-10--|
F|--------------------------------------------| #1
C|--------------------------------------------|
G|--------------------------------------------|
C|--------------------------------------------|

D|--------------------------------------------|
A|-11h13p11-10-11--11h13p11-10-11-13h15-13-11-|
F|--------------------------------------------| #2
C|--------------------------------------------|
G|--------------------------------------------|
C|--------------------------------------------|

D|--------------------------------------------|
A|-11h13p11-10-11--11h13p11-10-11-15b---------|
F|--------------------------------------------| #3
C|--------------------------------------------|
G|--------------------------------------------|
C|--------------------------------------------|

D|--------------------------------------------|
A|-11h13p11-10-11--11h13p11-10-11-13b---------|
F|--------------------------------------------| #4
C|--------------------------------------------|
G|--------------------------------------------|
C|--------------------------------------------|


 Guitar 2
 These are played with the 4 parts above:

 1, 2, 1, 3, 1, 2, 1, 3

D|--------------------------------------------|
A|--------------------------------------------|
F|--------------------------------------------| #1
C|-0------------------------------------1-4-4-|
G|-0------------------------------------1-4-4-|
C|-0------------------------------------1-4-4-|
PM                                      . . .

D|--------------------------------------------|
A|--------------------------------------------|
F|--------------------------------------------| #2
C|-1------------------------------------1-3-3-|
G|-1------------------------------------1-3-3-|
C|-1------------------------------------1-3-3-|
PM                                      . . .

D|--------------------------------------------|
A|--------------------------------------------|
F|--------------------------------------------| #3
C|-1--------------------------------------1-3-|
G|-1--------------------------------------1-3-|
C|-1--------------------------------------1-3-|
                                  

____________________________________________________________________________

***************

 Both Guitars
D|-------------------------------------------|
A|-------------------------------------------|
F|-------------------------------------------|
C|--6\---------------------------------------|
G|--6\---------------------------------------|
C|--6\--0-0-0-000-0-0-0-100030004000---------| X 4
PM      . . . ... . . . ............

 Both Guitars
D|------------------------------|
A|------------------------------|
F|------------------------------|
C|--6\--------------------------|
G|--6\--------------------------|
C|--6\--0-0-30004000------------| X 8
PM      . . ........


 Both Guitars
D|------------------------------------------------------------|
A|------------------------------------------------------------|
F|------------------------------------------------------------|
C|--6--------------------------------6-6-6-6-6-6-6-6-6-6-6-6--|
G|--6--------------------------------6-6-6-6-6-6-6-6-6-6-6-6--|
C|--6--6-6-6-666-6-6-6-666666666666--6-6-6-6-6-6-6-6-6-6-6-6--|
PM     . . . ... . . . ............




 Both Guitars                  X 3                            4th time
D|--------------------------------|------------------------------------|
A|--------------------------------|------------------------------------|
F|--------------------------------|------------------------------------|
C|--0---0-0-0---0-0-0-0-1-3-3-1-3-|-0---0-0-0---0-0-0-0-1-3-3-1-3------|
G|--0---0-0-0---0-0-0-0-1-3-3-1-3-|-0---0-0-0---0-0-0-0-1-3-3-1-3------|
C|--0---0-0-0---0-0-0-0-1-3-3-1-3-|-0---0-0-0---0-0-0-0-1-3-3-1-3-/11~-|
PM      . .         . .                 . .         . .

             
 Both Guitars                      
D|--------------------------------|
A|--------------------------------|
F|--------------------------------|
C|------0-0-0---0-0-0-0-1-3-3-1-3-|
G|------0-0-0---0-0-0-0-1-3-3-1-3-|
C|-(11)-0-0-0---0-0-0-0-1-3-3-1-3-|
PM      . .         . . 


       
 Both Guitars                  X 2 
D|--------------------------------|--------------------------------------|
A|--------------------------------|--------------------------------------|
F|--------------------------------|--------------------------------------|
C|--0---0-0-0---0-0-0-0-1-3-3-1-3-|-0---0-0-0---0-0-0-0-1-3-3-1-3--------|
G|--0---0-0-0---0-0-0-0-1-3-3-1-3-|-0---0-0-0---0-0-0-0-1-3-3-1-3--------|
C|--0---0-0-0---0-0-0-0-1-3-3-1-3-|-0---0-0-0---0-0-0-0-1-3-3-1-3-/11~~b-|
PM      . .         . .                 . .         . .

***************


 It is probably my crappy speakers but in this part it is hard to hear 
 what the non-open notes are so I may change it when I get a better listen.
D|----------------------------------|
A|----------------------------------|
F|----------------------------------|
C|----------------------------------| 
G|----------------------------------|
C|-0000--0-0-0-0000--0-0-0-14443000-|
PM ....  . . . ....  . . . ........
 |
D|------------------------------|
A|------------------------------|
F|------------------------------| 
C|------------------------------|
G|------------------------------|
C|-0000--0-0-0-0000--0-0-0-1444-| both X2
PM ....  . . . ....  . . . ....




D|------------------------------------|
A|------------------------------------|
F|------------------------------------|
C|--6--6\--------------------------6--|
G|--6--6\--------------------------6--|
C|--6--6\--0-0-0-000-0-0-0-100030006--|
PM        . . . ... . . . ........



***************
 play the parts between the asterisks again.
***************



 2 guitars - Second guitar comes in here             * 
 on the first time.
D|-----------------------------------------------------------------|
A|-----------------------------------------------------------------|
F|-----------------------------------------------------------------|
C|-6\--0-0-0-0-0-0-0-3-4-3-2-3-2-1-6\--0-0-0-0-0-0-0-1/3-0-3/4-0-0-|
G|-6\--0-0-0-0-0-0-0-3-4-3-2-3-2-1-6\--0-0-0-0-0-0-0-1/3-0-3/4-0-0-|
C|-6\--0-0-0-0-0-0-0-3-4-3-2-3-2-1-6\--0-0-0-0-0-0-0-1/3-0-3/4-0-0-|x 6
PM     . . . . . . . . . . . . . .     . . . . . . .     .     . . 


 Guitar 3 - Plays over the last 2 times of the riff above.
D|----------------------------------------------------------------|
A|----16--16--16--16--16--16--16--16--16--16--16--16--16--16--16--|
F|--19--19--19--19--19--19--19--19--19--19--19--19--19--19--19----|
C|----------------------------------------------------------------|
G|----------------------------------------------------------------|
C|----------------------------------------------------------------|


____________________________________________________________________________


 Guitar 1
D|----------------------------------------------------------------------|
A|----------------------------------------------------------------------|
F|----------------------------------------------------------------------|
C|-------------------------------------------------------2--------------|
G|-5-----------------4-----------------1-----------------0--------------|
C|----------------------------------------------------------------------|x2

 Guitar 2 - Plays over the 2nd time
D|-------------------------------------------------------------------------|
A|-------------------------------------------------------------------------|
F|-------------------------------------------------------------------------|
C|-------------------------------------------------------------------------|
G|-5---5-7/8~~-8-7-5-4---4-5/7~~-7-5-4-5---5-7/8~~-8-7-5-4---4-5/7~~-7-5-4-|
C|---7-----------------7-----------------7-----------------7---------------|


D|-------------------| Pick scrape at the end of 2nd time.
A|-------------------|
F|-------------------|
C|--\\\\\\\\\\\\-----|
G|--\\\\\\\\\\\\-----|
C|--\\\\\\\\\\\\-----|





 Guitar 1   There is a guitar 3 (or 4) here
D|--------------------------------------------------------------------|
A|--------------------------------------------------------------------|
F|--------------------------------------------------------------------|
C|---------------------------------------------------2----------------|
G|-5----------------4---------------1----------------0----------------|
C|--------------------------------------------------------------------|x3

 Guitar 2
D|--------------------------------------------------------------------|
A|--------------------------------------------------------------------|
F|--------------------------------------------------------------------|
C|--------------------------------------------------------------------|
G|-5---5-7/8--8-7-5-4---4-5/7-7-5-4-5---5-7/8--8-7-5-4---4-5/7-7-5-4--|
C|---7----------------7---------------7----------------7--------------|x3

 Guitar 3 - play each note with volume down then slowly 
            bring up volume to give a kind of harp like effect.
 Play the first part then the second part then the first again.
D|------------------------------|-----------------------------------|
A|------------------------------|-----------------------------------|
F|-7-------6-------7-------9----|----7-------9-------10-------9-----|
C|------------------------------|-----------------------------------|
G|------------------------------|-----------------------------------|
C|------------------------------|-----------------------------------|

 Guitar 4  (starts on 2nd time of guitars 1 & 2)

D|------------------------------------------------------------------|
A|------------------------------------------------------------------|
F|------------------------------------------------------------------|
C|-------------/7-7-7-7-b8r7----7~--7-h8p7--------------------------|
G|--5---5-7/8----------------10------------10-8-10-8p7h8-7\4--------|
C|----7------------------------------------------------------7-5-7~-|

D|----------------------------------------------------------------|
A|----------------------------------------------------------------|
F|----------------6-7-9-10~--10-9-10-9-7-9-7h9p7-6-7-6------------|
C|--/7-7-7-7--5-7--------------------------------------8-7-5-8-7~-|
G|----------------------------------------------------------------|
C|----------------------------------------------------------------|




 Guitar 1
D|---------------------------------------------|
A|---------------------------------------------|
F|--3-------------------2----------------------|
C|--3-------------------2----------------------|
G|--1-------------------0----------------------|
C|---------------------------------------------|

 Guitar 2
D|---------------------------------------------|
A|----------10-11-10-8----------/10-8----------|
F|--------7-------------------6-------10-9-----|
C|--8-7-8---------------7-5-7------------------|
G|---------------------------------------------|
C|---------------------------------------------|



 Guitar 1
D|---------------------------------------------|
A|---------------------------------------------|
F|--3-------------------6----------------------|
C|--3-------------------6----------------------|
G|--1-------------------4----------------------|
C|---------------------------------------------|

 Guitar 2
D|----------------------9----9-10-10/12--------|
A|----------10-11-10-8----10-------------------|
F|--------7------------------------------------|
C|--8-7-8--------------------------------------|
G|---------------------------------------------|
C|---------------------------------------------|




 Guitar 1
D|----------------------------------------------------------------|
A|----------------------------------------------------------------|
F|----------------------------------------------------------------|
C|---------------------------------------------------2------------|
G|-5------------------4---------------1--------------0------------|
C|----------------------------------------------------------------|x2
              
 Guitar 2                                          
D|----------------------------------------------------------------|
A|----------------------------------------------------------------|
F|----------------------------------------------------------------|
C|--------------------------------------------------/7------------|
G|-5---5-7/8--8-7-5-4---4-5/7-7-5-4-5---5-7/8-8-7-5----7-7~-5-4/8-|
C|---7----------------7---------------7---------------------------|x2

 Guitar 3 - play each note with volume down then slowly 
            bring up volume to give a kind of harp like effect.
D|------------------------------|-----------------------------------|
A|------------------------------|-----------------------------------|
F|-7-------6-------7-------9----|----7-------9-------10-------9-----|
C|------------------------------|-----------------------------------|
G|------------------------------|-----------------------------------|
C|------------------------------|-----------------------------------|




 Guitar 1
D|---------------------------------------------|
A|---------------------------------------------|
F|--3-------------------2----------------------|
C|--3-------------------2----------------------|
G|--1-------------------0----------------------|
C|---------------------------------------------|

 Guitar 2
D|---------------------------------------------|
A|----------10-11-10-8----------/10-8----------|
F|--------7-------------------6-------10-9-----|
C|--8-7-8---------------7-5-7------------------|
G|---------------------------------------------|
C|---------------------------------------------|

 Guitar 3
D|---------------------------------------------|
A|---------------------------------------------|
F|---------------------------------------------|
C|----------------------7p5-7-7br~-------------|
G|---------------------------------------------|
C|---------------------------------------------|



 Guitar 1
D|---------------------------------------------|
A|---------------------------------------------|
F|--3-------------------6----------------------|
C|--3-------------------6----------------------|
G|--1-------------------4----------------------|
C|---------------------------------------------|

 Guitar 2
D|----------------------9----9-10-10/12--------|
A|----------10-11-10-8----10-------------------|
F|--------7------------------------------------|
C|--8-7-8--------------------------------------|
G|---------------------------------------------|
C|---------------------------------------------|




 Guitar 1
D|----------------------------------------------------------------|
A|----------------------------------------------------------------|
F|----------------------------------------------------------------|
C|----------------------------------------------------2-----------|
G|-5----------------4---------------1-----------------0-----------|
C|----------------------------------------------------------------|

 Guitar 2
D|----------------------------------------------------------------------|
A|----------------------------------------------------------------------|
F|----------------------------------------------------------------------|
C|----------------------------------------------------------------------|
G|-5---5-7/8--8-7-5-4---4-5/7-7-5-4-5---5-/12-12-10-8-10-8-7-/10-10-8-7-|
C|---7----------------7---------------7---------------------------------|

 Guitar 3 - play the notes with volume down then slowly
            bring up volume to give a kind of harp like effect.
D|----------------------------------------------------------------------|
A|----------------------------------------------------------------------|
F|-7----------------9--------------14-----------------12--------14--12--|
C|----------------------------------------------------------------------|
G|----------------------------------------------------------------------|
C|----------------------------------------------------------------------|




 Guitar 1
D|----------------------------------------------------------------|
A|----------------------------------------------------------------|
F|----------------------------------------------------------------|
C|--------------------------------------------------2-------------|
G|-5----------------4---------------1---------------0-------------|
C|----------------------------------------------------------------|

 Guitar 2
D|----------------------------------------------------------------|
A|----------------------------------------------------------------|
F|----------------------------------------------------------------|
C|------------------------------------------------5-7-8-7-5-7-----|
G|-5---5-7/8--8-7-5-4---4-5/7-7-5-4-5-4-5-7-8-7-8-----------------|
C|---7----------------7-------------------------------------------|


 Guitar 3 - play the notes with volume down then slowly
            bring up volume to give a kind of harp like effect.
D|----------------------------------------------------------------|
A|----------------------------------------------------------------|
F|-7----------------9----------------10-----------9---------------|
C|----------------------------------------------------------------|
G|----------------------------------------------------------------|
C|----------------------------------------------------------------|


____________________________________________________________________________


 Guitar 1
D|------------------------------------------------|
A|------------------------------------------------|
F|----7-----7--5--2--3-----3--2-----------3----5--|
C|----7-----7--5--2--3-----3--2--3--5-----3----5--|
G|--3-5-----5--3--0--1-----1--0--3--5-----1----3--|
C|-------------------------------3--5-------------|

 guitar 2 - Playing the clean picked chords.
*I have not worked this out yet.  Any suggestions are welcome.
 I will add it as soon as I work it out.




 Guitar 1 - Plays under solo                     *
D|-----------------------------------------------------------|
A|-----------------------------------------------------------|
F|--------7--5--2--3-----3--2-----------------------3----5---|
C|--0-----7--5--2--3-----3--2--3--5-----3-----0-----3----5---|
G|--0-----5--3--0--1-----1--0--3--5-----3-----0-----1----3---|
C|--0--------------------------3--5-----3-----0--------------|
PM                             .


 Guitar 2 - Solo
D|--------------------------------------17-18-17-15-17-17brp15-17~--|
A|--------15-17-18-17-15-17-17brp15---------------------------------|
F|--17b~~---------------------------15~-----------------------------|
C|------------------------------------------------------------------|
G|------------------------------------------------------------------|
C|------------------------------------------------------------------|


D|--20brp17-20~-21b----20-18-17-18-17-18-17p15-17-------------------|
A|-------------------------------------------------18-17p15-17~-15--|
F|------------------------------------------------------------------|
C|------------------------------------------------------------------|
G|------------------------------------------------------------------|
C|------------------------------------------------------------------|


 Guitar 3 - Starts just before the end of the solo (where the asterisk 
                                                    on guitar 2 is)
D|-------------------------------------------------------5----------|
A|---------------------------------------------------------6--------|
F|-----------------------------------------------------------7------|
C|-----------------------------------------------------7-------7----|
G|------------8----------8----------8----------------5-----------5--|
C|--0------0------8-5-0------3-2-0------8-5-3--7--0-----------------|


____________________________________________________________________________


 In the background for this part the bass plays a similat bass line 
 to the last guitar part and a guitar plays this with it.
 Guitar 2
D|-------------------------------------------------------5----------|
A|---------------------------------------------------------6--------|
F|-----------------------------------------------------------7------|
C|-----------------------------------------------------7-------7----|
G|---------------------------------------------------5-----------5--|
C|------------------------------------------------------------------|


 Guitar 1
D|------------------------------------------------------------------|
A|------------------------------------------------------------------|
F|------------------------------------------------------------------|
C|-----15-14----14-12----12-10----10-8----8-7---7-5---5-3---3-2-2br-|
G|--17-------15-------13-------12------10-----8-----7-----5---------|
C|------------------------------------------------------------------|
PM  .        .        .        .       .      .     .     .         


D|------------------------------------------------------------------|
A|------------------------------------------------------------------|
F|------------------------------------------------------------------|
C|-----15-14----14-12----12-10----10-8----8-7-7br-5-7br~------------|
G|--17-------15-------13-------12------10---------------------------|
C|------------------------------------------------------------------|
PM  .        .        .        .       .        


D|-----------------------------------------------------------------------|
A|-------------------------------11-10----10-8---8-6---6-5-5h6p5---5h6p5~|
F|-----------------12-10--10-9-----------------7-----5-----------7-------|
C|--15-14--14-12-12-----10----12-------12--------------------------------|
G|17-----15--------------------------------------------------------------|
C|-----------------------------------------------------------------------|
PM.      .       .      .     .        .       .     .

D|------------------------------------------------------------------|
A|------------------------------------------------------------------|
F|------------------------------------------------------------------|
C|-----15-14----14-12----12-10----10-8----8-7---7-5---5-3---3-2-2br-|
G|--17-------15-------13-------12------10-----8-----7-----5---------|
C|------------------------------------------------------------------|
PM  .        .        .        .       .      .     .     .    



D|--------------------------|
A|--------------------------|
F|--------------------------|
C|--7-----5-------7br~------|
G|----8-5---7-5-8-----------|
C|--------------------------| play all 5 twice
PM    . .   . . 


____________________________________________________________________________


 Guitar 1
 The next 6 parts are played in the following order:

 1, 2, 1, 3, 1, 3, 1, 4, 1, 3, 1, 4, 1, 2, 5, 6

D|--------------------------------------------|
A|-10h11p10-8-10--10h11p10-8-10--11h13-11-10--|
F|--------------------------------------------| #1
C|--------------------------------------------|
G|--------------------------------------------|
C|--------------------------------------------|

D|--------------------------------------------|
A|-11h13p11-10-11--11h13p11-10-11-13h15-13-11-|
F|--------------------------------------------| #2
C|--------------------------------------------|
G|--------------------------------------------|
C|--------------------------------------------|

D|--------------------------------------------|
A|-11h13p11-10-11--11h13p11-10-11-13b---------|
F|--------------------------------------------| #3
C|--------------------------------------------|
G|--------------------------------------------|
C|--------------------------------------------|

D|--------------------------------------------|
A|-11h13p11-10-11--11h13p11-10-13b------------|
F|--------------------------------------------| #4
C|--------------------------------------------|
G|--------------------------------------------|
C|--------------------------------------------|

D|-12h13p12-10-12-----------------------------|
A|-----------------13h15p13-11-13--10h11p10-8-|
F|--------------------------------------------| #5
C|--------------------------------------------|
G|--------------------------------------------|
C|--------------------------------------------|

D|-11-10-8---------------------------8-10-10--|
A|---------11-10-8-----------8-10-11----------|
F|-----------------8-7-5-7-8------------------| #6
C|--------------------------------------------|
G|--------------------------------------------|
C|--------------------------------------------|


 Guitar 2
 These are played with the 6 parts above:

 1, 2, 1, 3, 1, 2, 1, 3, 1, 2, 1, 4, 5, 6, 5, 7

D|-------------------------------------------|
A|-------------------------------------------|
F|-------------------------------------------| #1
C|-0-----------------------------------1-4-4-|
G|-0-----------------------------------1-4-4-|
C|-0-----------------------------------1-4-4-|
PM                                     . . .

D|-------------------------------------------|
A|-------------------------------------------|
F|-------------------------------------------| #2
C|-1-----------------------------------1-3-3-|
G|-1-----------------------------------1-3-3-|
C|-1-----------------------------------1-3-3-|
PM                                     . . .
         
D|-------------------------------------------|
A|-------------------------------------------|
F|-------------------------------------------| #3
C|-1-------------------------------------1-3-|
G|-1-------------------------------------1-3-|
C|-1-------------------------------------1-3-|

D|-------------------------------------------|
A|-------------------------------------------|
F|-------------------------------------------| #4
C|-1-----------------------------------------|
G|-1-----------------------------------------|
C|-1--------------------------------35555555-|
PM                                  ........

D|-------------------------------------------|
A|-------------------------------------------|
F|-------------------------------------------| #5
C|-0-----------------------------------------|
G|-0-----------------------------------------|
C|-0-----------------------------------------|

D|-------------------------------------------|
A|-------------------------------------------|
F|-------------------------------------------| #6
C|-1-----------------------------------------|
G|-1-----------------------------------------|
C|-1-----------------------------------------|

D|-------------------------------------------|
A|-------------------------------------------|
F|-------------------------------------------| #7
C|-1-1-1-1-1-1-1-1-1-1-1-1-1-3-3-3-----------|
G|-1-1-1-1-1-1-1-1-1-1-1-1-1-3-3-3-----------|
C|-1-1-1-1-1-1-1-1-1-1-1-1-1-3-3-3-----------|
PM . . . . . . . . . . . . . . . .

____________________________________________________________________________


 let this note ring long and use the whammy bar
 to drop the pitch before the start of the next part.
D|--------------------------------------------|
A|--------------------------------------------|
F|--------------------------------------------|
C|--0-----------------------------------------|
G|--------------------------------------------|
C|--------------------------------------------|

____________________________________________________________________________


 The next 6 parts are played in the following order:

 1, 2, 1, 3, 1, 2, 1, 4, 1, 2, 1, 3, 1, 2, 1, 5, 1, 2, 1, 6, 1, 2, 1, 3
 Guitar 3 comes in here->*                       *fade out ---------->


 Guitars 1 & 2
D|----------------------------------|
A|----------------------------------|
F|----------------------------------| #1
C|----------------------------------| 
G|----------------------------------|
C|-0000--0-0-0-0000--0-0-0-14443000-|
PM ....  . . . ....  . . . ........


D|------------------------------|
A|------------------------------|
F|------------------------------| #2
C|------------------------------|
G|------------------------------|
C|-0000--0-0-0-0000--0-0-0-1444-|
PM ....  . . . ....  . . . ....


D|--------------------------------------|
A|--------------------------------------|
F|--------------------------------------| #3
C|--------------------------------------|
G|--------------------------------------|
C|-0000--0-0-0-0000--0-0-0-144430001444-|
PM ....  . . . ....  . . . ............

D|--------------|
A|--------------|
F|--------------| #4
C|--------------|
G|--------------|
C|-0000--0-1444-|
PM ....  . ....

D|-------------------------------|
A|-------------------------------|
F|-------------------------------| #5
C|-------------------------------|
G|-------------------------------|
C|-0000--0-600060006000--111-111-|
PM ....  . ............  ... ...

D|----------------------|
A|----------------------|
F|----------------------| #6
C|----------------------|
G|----------------------|
C|-0000--0-600060006000-|
PM ....  . ............



 Guitar 3
D|--------------------------------------------------|
A|------16------16------16------16------16------16--|
F|--19------19------19------19------19------19------|
C|--------------------------------------------------|
G|--------------------------------------------------|
C|--------------------------------------------------|



Tap to rate this tab
# A B C D E F G H I J K L M N O P Q R S T U V W X Y Z