Guitaretab - guitar tabs
Song name
# A B C D E F G H I J K L M N O P Q R S T U V W X Y Z
Home / C / Chimaira / Flame tab

Chimaira - Flame tab

Artist - Chimaira
Album - Resurrection
Track - 7
Song - The Flame

Tuning - Drop C  CGCFAD
Tabbed By - soilborn


/ - Slide up    \ - Slide down
h - Hammer on   p - Pull off
. - Palm mute   b - Bend

  /  \     Raise or lower pitch
 /    \  - with whammy bar
/      \


                             X3
D|-----------------------------|--------------------------|
A|-----------------------------|--------------------------|
F|-----------------------------|--------------------------|
C|-----------------------------|--------------------------|
G|-----------------------------|--------------------------|
C|--0-0----0-0-0----0-0-0-0-0--|--4444--4444--4444--4444--|
PM  . .    . . .    . . . . .     ....  ....  ....  ....


                             X3
D|-----------------------------|-------------------------------|
A|-----------------------------|-------------------------------|
F|-----------------------------|-------------------------------|
C|-----------------------------|-------------------------------|
G|-----------------------------|-------------------------------|
C|--0-0----0-0-0----0-0-0-0-0--|--4444--4444--2-2-2-2-2-2-2-2--|
PM  . .    . . .    . . . . .     ....  ....  . . . . . . . .


Whenever this next part is played the runs down the C & G strings 
are played by different guitars
                             X3
D|-----------------------------|-----------------------------------|
A|-----------------------------|-----------------------------------|
F|-----------------------------|-----------------------------------|
C|-----------------------------|--7-6-5-4-6-5-4-3-5-4-3-2-4-3-2-1--|
G|-----------------------------|--9-8-7-6-8-7-6-5-7-6-5-4-6-5-4-3--|
C|--0-0----0-0-0----0-0-0-0-0--|-----------------------------------|
PM  . .    . . .    . . . . .     . . . . . . . . . . . . . . . .

 Guitar 3
D|-------6-------7-------9-----|
A|---4-------5-------7---------|
F|-----------------------------|
C|-----------------------------|
G|-----------------------------|
C|-----------------------------|x2


                             X3
D|-----------------------------|-------------------------------|
A|-----------------------------|-------------------------------|
F|-----------------------------|-------------------------------|
C|-----------------------------|-------------------------------|
G|-----------------------------|-------------------------------|
C|--0-0----0-0-0----0-0-0-0-0--|--4444--4444--2-2-2-2-2-2-2-2--|
PM  . .    . . .    . . . . .     ....  ....  . . . . . . . .

 Guitar 3                                   Drop pitch with whammy.
D|-------6-------7-------9-----|-------6-------7\  ---------------|
A|---4-------5-------7---------|---4-------5---5\\ ---------------|
F|-----------------------------|-----------------\\---------------|
C|-----------------------------|------------------\---------------|
G|-----------------------------|----------------------------------|
C|-----------------------------|----------------------------------|



 Guitar 1
D|----------------------------------------|
A|----------------------------------------|
F|----------------------------------------|
C|--5---6---------------------------------|
G|--5---6---------------------------------|
C|--5-0-6-0-0-5-3-6-5-4-3-----------------|x12
PM    .   . . . . . . . .

 Guitar 2 - After 2nd time on the above riff do a quick slide up 
            to 5 then drop with whammy.  Then after the 4th time
            of the above riff join guitar 1 for last 8 times.
D|------------|
A|------------|
F|------------|
C|------------|
G|--/5\ ------|
C|-----\------|
        \


 Guitar 1
D|-------------------------------------------------------------------|
A|-------------------------------------------------------------------|
F|-------------------------------------------------------------------|
C|--5---6------------------------------------------------------------|
G|--5---6------------------------------------------------------------|
C|--5-0-6------------------------------------------------------------|
PM    .

 Guitar 2
D|-------------------------------------------------------------------|
A|-------------------------------------------------------------------|
F|-------------------------------------------------------------------|
C|----------------------------------5---6---5---6---5---6---5---6----|
G|--5---6---5---6---5---6---5---6---5---6---5---6---5---6---5---6----|
C|--5-0-6-0-5-0-6-0-5-0-6-0-5-0-6-0-5-0-6-0-5-0-6-0-5-0-6-0-5-0-6-0--|
PM    .   .   .   .   .   .   .   .   .   .   .   .   .   .   .   .



                                 x3
D|---------------------------------|-------------------------------|
A|---------------------------------|-------------------------------|
F|---------------------------------|-------------------------------|
C|--5---6-------------------5---6--|--5---6-----3---5--------------|
G|--5---6-------------------5---6--|--5---6-----3---5--------------|
C|--5-0-6-0-0-0-0-0-0-0-0-0-5-0-6--|--5-0-6-0-0-3-0-5-0-5-6-3~~----|x2
PM    .   . . . . . . . . .   .         .   . .   .   . 



The slide up from 3 goes to about the 9th fret whenever it's played

                             X3
D|-----------------------------|----------------------------|
A|-----------------------------|----------------------------|
F|-----------------------------|----------------------------|
C|-----------------------------|----------------------------|
G|----------------------3/-----|----------------------------|
C|--0-0----0-0-0----0-0-3/-----|--0-0----0-0----0-0----0-0--|X2
PM  . .    . . .    . .           . .    . .    . .    . . 


                             X3
D|-----------------------------|-----------------------------------|
A|-----------------------------|-----------------------------------|
F|-----------------------------|-----------------------------------|
C|-----------------------------|--7-6-5-4-6-5-4-3-5-4-3-2-4-3-2-1--|
G|-----------------------------|--9-8-7-6-8-7-6-5-7-6-5-4-6-5-4-3--|
C|--0-0----0-0-0----0-0-0-0-0--|-----------------------------------|
PM  . .    . . .    . . . . .     . . . . . . . . . . . . . . . .

 Guitar 3
D|-------6-------7-------9-----|
A|---4-------5-------7---------|
F|-----------------------------|
C|-----------------------------|
G|-----------------------------|
C|-----------------------------|x2


                             X3
D|-----------------------------|-------------------------------|
A|-----------------------------|-------------------------------|
F|-----------------------------|-------------------------------|
C|-----------------------------|-------------------------------|
G|-----------------------------|-------------------------------|
C|--0-0----0-0-0----0-0-0-0-0--|--4444--4444--2-2-2-2-2-2-2-2--|
PM  . .    . . .    . . . . .     ....  ....  . . . . . . . .

 Guitar 3                                   Drop pitch with whammy.
D|-------6-------7-------9-----|-------6-------7\  ---------------|
A|---4-------5-------7---------|---4-------5---5\\ ---------------|
F|-----------------------------|-----------------\\---------------|
C|-----------------------------|------------------\---------------|
G|-----------------------------|----------------------------------|
C|-----------------------------|----------------------------------|




 Guitar 2 comes in with the same riff after the first 2.
D|----------------------------------------|
A|----------------------------------------|
F|----------------------------------------|
C|--5---6---------------------------------|
G|--5---6---------------------------------|
C|--5-0-6-0-0-5-3-6-5-4-3-----------------|x10
PM    .   . . . . . . . .



 Guitar 1
D|-------------------------------------------------------------------|
A|-------------------------------------------------------------------|
F|-------------------------------------------------------------------|
C|--5---6------------------------------------------------------------|
G|--5---6------------------------------------------------------------|
C|--5-0-6------------------------------------------------------------|
PM    .

 Guitar 2
D|-------------------------------------------------------------------|
A|-------------------------------------------------------------------|
F|-------------------------------------------------------------------|
C|----------------------------------5---6---5---6---5---6---5---6----|
G|--5---6---5---6---5---6---5---6---5---6---5---6---5---6---5---6----|
C|--5-0-6-0-5-0-6-0-5-0-6-0-5-0-6-0-5-0-6-0-5-0-6-0-5-0-6-0-5-0-6-0--|
PM    .   .   .   .   .   .   .   .   .   .   .   .   .   .   .   .



                                 x3
D|---------------------------------|-------------------------------|
A|---------------------------------|-------------------------------|
F|---------------------------------|-------------------------------|
C|--5---6-------------------5---6--|--5---6-----3---5--------------|
G|--5---6-------------------5---6--|--5---6-----3---5--------------|
C|--5-0-6-0-0-0-0-0-0-0-0-0-5-0-6--|--5-0-6-0-0-3-0-5-0-5-6-3~~----|x2
PM    .   . . . . . . . . .   .         .   . .   .   . 



                             X3
D|-----------------------------|----------------------------|
A|-----------------------------|----------------------------|
F|-----------------------------|----------------------------|
C|-----------------------------|----------------------------|
G|----------------------3/-----|----------------------------|
C|--0-0----0-0-0----0-0-3/-----|--0-0----0-0----0-0----0-0--|
PM  . .    . . .    . .           . .    . .    . .    . . 


                             X3
D|-----------------------------|----------------------------|
A|-----------------------------|----------------------------|
F|-----------------------------|----------------------------|
C|-----------------------------|----------------------------|
G|----------------------3/-----|--6--7--6--3--2--1--0-------|
C|--0-0----0-0-0----0-0-3/-----|--6--7--6--3--2--1--0-------|
PM  . .    . . .    . . 


                             
D|-------------------------------------------------------|
A|-------------------------------------------------------|
F|-------------------------------------------------------|
C|------------------------0---------1---------3----------|
G|---6--7--6--3--2--1--0---------------------------------|
C|---6--7--6--3--2--1--0-------1---------3---------3--5--|X2


D|--------------------------------------------|
A|--------------------------------------------|
F|--------------------------------------------|
C|--------------------------------------------|
G|---6--7--6--3--2--1--0----------------------|
C|---6--7--6--3--2--1--0----------------------|



[ Tab from: http://www.guitaretab.com/c/chimaira/155943.html ]
 Guitar 1 - Next 2 parts 4 times
D|--------------------------------------------------------------------|
A|--------------------------------------------------------------------|
F|-----------------------------------------------------------2-3-2----|
C|--2-2---2-1--------------------------------------------2-3-------3--|
G|--------------0-0-3-4-3-1-3-4-3-1--3-3---3-0---0-0-2-3--------------|
C|--------------------------------------------------------------------|
PM  . .   . .   . . . . . . . . . .  . .   . .   . . . . . . . . . .


D|---------------------------------------------------------------------|
A|-----------------------------------------------5-6-5---5-------------|
F|-----------------------------------------5-6-8-------6---6-5-3-6-5---|
C|--2-2---2-1------------------------4-5-7-----------------------------|
G|--------------0-0-3-4-3-1-3-4-3-1------------------------------------|
C|---------------------------------------------------------------------|
PM  . .   . .   . . . . . . . . . .  . . . . . . . . . . . . . . . . 


 Guitar 2 - Comes in after first 2 times of the above
D|--------------------------------------------|
A|--------------------------------------------|
F|--------------------------------------------|
C|---2--------4--------5--------7-------------|
G|---0--------2--------3--------5-------------|
C|--------------------------------------------|x2




 Guitar 1 - Plays many more notes than this (about 50 total)
D|------------------------------------------------------------------------|
A|--15----15----15----15----15----15----15----15----15----15----15--------|
F|-----17----17----17----17----17----17----17----17----17----17----17-----|
C|------------------------------------------------------------------------|
G|------------------------------------------------------------------------|
C|------------------------------------------------------------------------|

 Guitar 2
D|--------------------------------------------|
A|--------------------------------------------|
F|--------------------------------------------|
C|--7--------5--------3--------0--------------|
G|--7--------5--------3--------0--------------|
C|--7--------5--------3--------0--------------|x2




 Guitar 1
D|------------------------------------20b--20~~--24-24-22-20-19-20-19-20~-|
A|--20b--20~~---18p17-18~--17h18-17~--------------------------------------|
F|------------------------------------------------------------------------|
C|------------------------------------------------------------------------|
G|------------------------------------------------------------------------|
C|------------------------------------------------------------------------|

 Guitar 2
D|------------------------------------------------------------------------|
A|------------------------------------------------------------------------|
F|------------------------------------------------------------------------|
C|--2--------4--------5--------2--------7--------5--------0--------3------|
G|--0--------2--------3--------0--------7--------5--------0--------3------|
C|--------------------------------------7--------5--------0--------3------|




 Guitar 1
D|--19h20-19~---------------19h20-16~---------------16h17-12~-------------|
A|------------------------------------------------------------------------|
F|------------------------------------------------------------------------|
C|------------------------------------------------------------------------|
G|------------------------------------------------------------------------|
C|------------------------------------------------------------------------|

 Guitar 2
D|------------------------------------------------------------------------|
A|------------------------------------------------------------------------|
F|------------------------------------------------------------------------|
C|------------------------------------------------------------------------|
G|------------------------------------------------------------------------|
C|--9h10-9~-----------------9h10-6~-----------------6h7-2~----------------|



This part was hard but I think it's acurate.

D|--/12-12-12-12-12-12-13-13-12-10-12-10h12p10----10----------------------|
A|---------------------------------------------13----13-12-10-12-10h12p10-|
F|------------------------------------------------------------------------|
C|------------------------------------------------------------------------|
G|------------------------------------------------------------------------|
C|------------------------------------------------------------------------|

D|-----------------------------------------------------------------|
A|----10-----------------------------------------------------------|
F|-13----13-10-9-10-9h10p9----9-10-13-10-9-13-10-9-13-10-9-13p10p9-|
C|-------------------------12--------------------------------------|
G|-----------------------------------------------------------------|
C|-----------------------------------------------------------------|

D|-----------------------------------------------------------------|
A|-----------------------------------------------------------------|
F|-10-9----9-------------------------------------------------------|
C|------12---12-10-9-10-9h10p9-7-9--7--6--7--6-----9~--------------|
G|----------------------------------------------8---------7--------|
C|-----------------------------------------------------------------|



                             X3
D|-----------------------------|----------------------------|
A|-----------------------------|----------------------------|
F|-----------------------------|----------------------------|
C|-----------------------------|----------------------------|
G|----------------------3/-----|----------------------------|
C|--0-0----0-0-0----0-0-3/-----|--0-0----0-0----0-0----0-0--|
PM  . .    . . .    . .           . .    . .    . .    . . 



                             X3
D|-----------------------------|-----------------------------------|
A|-----------------------------|-----------------------------------|
F|-----------------------------|-----------------------------------|
C|-----------------------------|--7-6-5-4-6-5-4-3-5-4-3-2-4-3-2-1--|
G|-----------------------------|--9-8-7-6-8-7-6-5-7-6-5-4-6-5-4-3--|
C|--0-0----0-0-0----0-0-0-0-0--|-----------------------------------|
PM  . .    . . .    . . . . .     . . . . . . . . . . . . . . . . 

 Guitar 3
D|-------6-------7-------9-----|
A|---4-------5-------7---------|
F|-----------------------------|
C|-----------------------------|
G|-----------------------------|
C|-----------------------------|x2



                             X3
D|-----------------------------|-------------------------------|
A|-----------------------------|-------------------------------|
F|-----------------------------|-------------------------------|
C|-----------------------------|-------------------------------|
G|-----------------------------|-------------------------------|
C|--0-0----0-0-0----0-0-0-0-0--|--4444--4444--2-2-2-2----------|
PM  . .    . . .    . . . . .     ....  ....  . . . . 

 Guitar 3                                   Drop pitch with whammy.
D|-------6-------7-------9-----|-------6-------7\  ---------------|
A|---4-------5-------7---------|---4-------5---5\\ ---------------|
F|-----------------------------|-----------------\\---------------|
C|-----------------------------|------------------\---------------|
G|-----------------------------|----------------------------------|
C|-----------------------------|----------------------------------|



                             X2
D|-----------------------------|
A|-----------------------------|
F|-----------------------------|
C|-----------------------------|
G|----------------------3/-----|
C|--0-0----0-0-0----0-0-3/-----|
PM  . .    . . .    . .  



D|----------------------------------------------------------------|
A|----------------------------------------------------------------|
F|----------------------------------------------------------------|
C|--7-6-5-4-6-5-4-3-5-4-3-2-4-3-2-1-------------------------------|
G|--9-8-7-6-8-7-6-5-7-6-5-4-6-5-4-3-------------------------------|
C|-----------------------------------4444--4444--2-2-2-2-2-2-2-2--|
PM  . . . . . . . . . . . . . . . .  ....  ....  . . . . . . . .



                             X2
D|-----------------------------|
A|-----------------------------|
F|-----------------------------|
C|-----------------------------|
G|----------------------3/-----|
C|--0-0----0-0-0----0-0-3/-----|
PM  . .    . . .    . .  



D|----------------------------------------------------------|
A|----------------------------------------------------------|
F|----------------------------------------------------------|
C|-------------------------7-6-5-4-6-5-4-3-5-4-3-2-4-3-2-1--|
G|-------------------------9-8-7-6-8-7-6-5-7-6-5-4-6-5-4-3--|
C|--4444--4444--2222-2222-----------------------------------|
PM  ....  ....  .... ....  . . . . . . . . . . . . . . . .

            
                             
D|-----------------------------|-----------------------------------|
A|-----------------------------|-----------------------------------|
F|-----------------------------|-----------------------------------|
C|-----------------------------|--7-6-5-4-6-5-4-3-5-4-3-2-4-3-2-1--|
G|----------------------3/-----|--9-8-7-6-8-7-6-5-7-6-5-4-6-5-4-3--|
C|--0-0----0-0-0----0-0-3/-----|-----------------------------------|x2
PM  . .    . . .    . .           . . . . . . . . . . . . . . . .



Play this next riff until fade out.
D|------------------------|----------------------------------------------|
A|------------------------|----------------------------------------------|
F|------------------------|----------------------------------------------|
C|------------------------|-12-11-10-9--11-10-9--8--10-9--8--7-9--8--7-6-|
G|---------------------3/-|-14-13-12-11-13-12-11-10-12-11-10-9-11-10-9-8-|
C|-0-0----0-0-0----0-0-3/-|----------------------------------------------|
PM . .    . . .    . .      .  .  .  .  .  .  .  .  .  .  .  . .  .  . .


 
This fades in near the end and then fades out at the end. It's mainly the 
first part and the second part plays every few times where the last notes
are brought up from nothing with the whammy.

Guitar 3                                   
D|---9-------7-------6---------|---9-------7-------6-----  /6-----|
A|-------7-------5-------4-----|-------7-------5-------4- //4-----|
F|-----------------------------|-------------------------//-------|
C|-----------------------------|-------------------------/--------|
G|-----------------------------|----------------------------------|
C|-----------------------------|----------------------------------|

Related for Flame tab
Advertisement will be closed in 10 seconds