Song name
# A B C D E F G H I J K L M N O P Q R S T U V W X Y Z

Chimaira - Paralyzed tab

Artist - Chimaira
Album - Resurrection
Track - 13
Song - Paralyzed

Tuning - Drop C  CGCFAD
Tabbed By - soilborn


/ - Slide up    \ - Slide down
h - Hammer on   p - Pull off
. - Palm mute   b - Bend        r - Release

  /  \     Raise or lower pitch
 /    \  - with whammy bar
/      \



In the main riffs where i have hammer ons and pull offs you can 
use slides instead.  Whichever you prefer, it sounds similar either way.


 Both Guitars  
D|-----------------------------------|
A|-----------------------------------|
F|-----------------------------------|
C|--7-------7-------7-------7--------|
G|--5-6-5-0-5-6-5-0-5-6-5-0-5-6-5-0--|
C|----6-5-0---6-5-0---6-5-0---6-5-0--|


 Guitar 1         
D|--------------------------------------------------------------------|
A|--------------------------------------------------------------------|
F|--------------------------------------------------------------------|
C|-----------------------------------7-------7-------7-------7--------|
G|------888-----777-----888-----777--5-6-5-0-5-6-5-0-5-6-5-0-5-6-5-0--|
C|--0-0-----0-0-----0-0-----0-0--------6-5-0---6-5-0---6-5-0---6-5-0--|x3
PM  . .     . .     . .     . .

 Guitar 2
D|--------------------------------------------------------------------|
A|--------------------------------------------------------------------|
F|--------------------------------------------------------------------|
C|-----------------------------------7-------7-------7-------7--------|
G|------555-----444-----555-----444--5-6-5-0-5-6-5-0-5-6-5-0-5-6-5-0--|
C|--0-0-----0-0-----0-0-----0-0--------6-5-0---6-5-0---6-5-0---6-5-0--|x3
PM  . .     . .     . .     . .


                          
D|-------------------------------------------------------------------|
A|-------------------------------------------------------------------|
F|-------------------------------------------------------------------|
C|------------------------------------5h6---4h5---3h4---2h3----------|
G|------------------------------------5h6---4h5---3h4---2h3-0-1-3-1--|
C|--0-000-000-000-000-000-000-000-000-5h6-0-4h5-0-3h4-0-2h3-0-1-3-1--|X4
PM    ... ... ... ... ... ... ... ...     .     .     .     . . . .



D|-----------------------------------|
A|-----------------------------------|
F|-----------------------------------|
C|----5h6---4h5---3h4---2h3----------|
G|----5h6---4h5---3h4---2h3-0-1-3-1--|
C|--0-5h6-0-4h5-0-3h4-0-2h3-0-1-3-1--|X2
PM  .     .     .     .     . . . .



D|-----------------------------------|
A|-----------------------------------|
F|-----------------------------------|
C|--3p2---4p3---3p2---4p3------------|
G|--3p2---4p3---3p2---4p3---3-2-1-0--|
C|--3p2-0-4p3-0-3p2-0-4p3-0-3-2-1-0--|X2
PM      .     .     .     . . . . .



D|-----------------------------------|
A|-----------------------------------|
F|-----------------------------------|
C|-----------------------------------|
G|--3-2-0-4-3-0-3-2-0-4-3-0-3-2-1-0--|
C|--3-2-0-4-3-0-3-2-0-4-3-0-3-2-1-0--|X4
PM  . . . . . . . . . . . . . . . .



D|-------------------------------------------------------------------|
A|-------------------------------------------------------------------|
F|-------------------------------------------------------------------|
C|------------------------------------5h6---4h5---3h4---2h3-0-1-3-1--|
G|------------------------------------5h6---4h5---3h4---2h3-0-1-3-1--|
C|--0-000-000-000-000-000-000-000-000-5h6-0-4h5-0-3h4-0-2h3-0-1-3-1--|X2
PM    ... ... ... ... ... ... ... ...     .     .     .     . . . .



D|-----------------------------------|
A|-----------------------------------|
F|-----------------------------------|
C|----5h6---4h5---3h4---2h3----------|
G|----5h6---4h5---3h4---2h3-0-1-3-1--|
C|--0-5h6-0-4h5-0-3h4-0-2h3-0-1-3-1--|X2
PM  .     .     .     .     . . . .



D|-----------------------------------|------------------------------------|
A|-----------------------------------|------------------------------------|
F|-----------------------------------|------------------------------------|
C|--3p2---4p3---3p2---4p3------------|--3p2---4p3---3p2---4---------------|
G|--3p2---4p3---3p2---4p3---3-2-1-0--|--3p2---4p3---3p2---4---------------|
C|--3p2-0-4p3-0-3p2-0-4p3-0-3-2-1-0--|--3p2-0-4p3-0-3p2-0-4-00000--00000--|
PM      .     .     .     . . . . .         .     .     .   .....  .....



D|-----------------------------------|
A|-----------------------------------|
F|-----------------------------------|
C|----5h6---4h5---3h4---2h3----------|
G|----5h6---4h5---3h4---2h3-0-1-3-1--|
C|--0-5h6-0-4h5-0-3h4-0-2h3-0-1-3-1--|X2
PM  .     .     .     .     . . . .



D|-----------------------------------|
A|-----------------------------------|
F|-----------------------------------|
C|--3p2---4p3---3p2---4p3------------|
G|--3p2---4p3---3p2---4p3---3-2-1-0--|
C|--3p2-0-4p3-0-3p2-0-4p3-0-3-2-1-0--|X2
PM      .     .     .     . . . . .



D|-----------------------------------|
A|-----------------------------------|
F|-----------------------------------|
C|--7-------7-------7-------7--------|
G|--5-6-5-0-5-6-5-0-5-6-5-0-5-6-5-0--|
C|----6-5-0---6-5-0---6-5-0---6-5-0--|



D|-------------------------------------------------------------------|
A|-------------------------------------------------------------------|
F|-------------------------------------------------------------------|
C|-------------------------------------------------------------------|
G|------888-----777-----888-----777-----888-----777-----888-----777--|
C|--0-0-----0-0-----0-0-----0-0-----0-0-----0-0-----0-0-----0-0------|
PM  . .     . .     . .     . .     . .     . .     . .     . .

D|-------------------------------------------------------------------|
A|-------------------------------------------------------------------|
F|-------------------------------------------------------------------|
C|-------------------------------------------------------------------|
G|------555-----444-----555-----444-----555-----444-----555-----444--|
C|--0-0-----0-0-----0-0-----0-0-----0-0-----0-0-----0-0-----0-0------|x3
PM  . .     . .     . .     . .     . .     . .     . .     . .



 Guitar 1 (Under solo)
D|-------------------------------------------------------------------|
A|-------------------------------------------------------------------|
F|-------------------------------------------------------------------|
C|------------------------------------5h6---4h5---3h4---2h3-0-1-3-1--|
G|------------------------------------5h6---4h5---3h4---2h3-0-1-3-1--|
C|--0-000-000-000-000-000-000-000-000-5h6-0-4h5-0-3h4-0-2h3-0-1-3-1--|X4
PM    ... ... ... ... ... ... ... ...     .     .     .     . . . .


D|-----------------------------------|
A|-----------------------------------|
F|-----------------------------------|
C|----5h6---4h5---3h4---2h3----------|
G|----5h6---4h5---3h4---2h3-0-1-3-1--|
C|--0-5h6-0-4h5-0-3h4-0-2h3-0-1-3-1--|X2
PM  .     .     .     .     . . . .


D|-----------------------------------|
A|-----------------------------------|
F|-----------------------------------|
C|--3p2---4p3---3p2---4p3------------|
G|--3p2---4p3---3p2---4p3---3-2-1-0--|
C|--3p2-0-4p3-0-3p2-0-4p3-0-3-2-1-0--|X2
PM      .     .     .     . . . . .


 Guitar 2 (Solo)
D|------------------------------------------------6p5---5------------|
A|--------------------------7-8-----------------------8---8-7--------|
F|--7-7-7-7-7br-5-7~--5-7-8-----7~--7-7h8p7-5-7---------------8-7----|
C|-------------------------------------------------------------------|
G|-------------------------------------------------------------------|
C|-------------------------------------------------------------------|

D|--10-11-8-10-6-8-5-6---5-------------------------------------------|
A|---------------------8---6-8-5-6-----------------------------------|
F|---------------------------------7-8-5-7---5-----------------------|
C|-----------------------------------------8---7-8-5-7---5-----------|
G|-----------------------------------------------------8---6-8-5-----|
C|-------------------------------------------------------------------|


D|-----------------------------------------------------------------------|
A|----------------------------7---------8-7---7-----------------7---7----|
F|--7-5---7-----------7h8p7-8---8-7-5-----------8---8-7---5-7-8---8---8--|
C|----------8---8-7------------------------------------------------------|
G|-----------------------------------------------------------------------|
C|-----------------------------------------------------------------------|
PM                          .                                     .   .


D|-------------------------------------------------------------------|
A|--7br---7----------------------------------------------------------|
F|------8---8-7-8-7-5-5br-4-5-4---4----------------------------------|
C|------------------------------6---6-5-3---3------------------------|
G|----------------------------------------6---6-5-3-3/5~-------------|
C|-------------------------------------------------------------------|


 Hit note with whammy bar depressed then bring up then go back down.
 Or you can slide up to the note while bringing up the whammy bar and 
 you don't have to pick the note.
D|-------------------------------------------------------------------|
A|--------------------------------13b-r-10-13-10----10---------------|
F|-----------------------------------------------13----13-12-10------|
C|-----------  /11\  -  /15\  ---------------------------------------|
G|--  /12\  - /----\ - /----\ ---------------------------------------|
C|-- /----\ -/------\-/------\---------------------------------------|
    /      \

D|-------------------------------------------------------------------|
A|-------------------------------------------------------------------|
F|--12-10----12-10----12-10----------10------------------------------|
C|--------12-------12-------10-10-12----12~--------------------------|
G|-------------------------------------------------------------------|
C|-------------------------------------------------------------------|
PM        .        .        .

D|-------------9-----------------------------------------------------|
A|-----9-10-13---11-13/15-15/18-17-16----------18-17-16~-------------|
F|--12--------------------------------17-16-15-----------------------|
C|-------------------------------------------------------------------|
G|-------------------------------------------------------------------|
C|-------------------------------------------------------------------|



 Guitar 1
D|-----------------------------------|
A|-----------------------------------|
F|-----------------------------------|
C|-----------------------------------|
G|--3-2-0-4-3-0-3-2-0-4-3-0-3-2-1-0--|
C|--3-2-0-4-3-0-3-2-0-4-3-0-3-2-1-0--|X4
PM  . . . . . . . . . . . . . . . .


 Guitar 2 (Left speaker) - Play twice with different ending
D|--------------------------------------------|
A|--16-15---13-12-----------------------------|
F|------------------13-12---12---12-12-12-12--|
C|--------------------------------------------|
G|--------------------------------------------|
C|--------------------------------------------|


D|--------------------------------------------|
A|--------------------------------------------|
F|--13-12-------------------------------------|
C|----------13-12---10-9---9---9-9-9-9--------|
G|--------------------------------------------|
C|--------------------------------------------|

                                            
D|--------------------------------------------|
A|--------------------------------------------|
F|--------------------------------------------|
C|--10-9--------------------------------------|
G|---------11-10---8-10---10---10-10-10-10----|
C|--------------------------------------------|


  1st ending          2nd ending
D|-------------------|---------------------|
A|-------------------|---------------------|
F|-------------------|---------------------|
C|-------------------|---------------------|
G|--10/11-11-11-11~--|--10\6-6-6-6-6-6-5~--|
C|-------------------|---------------------|



 Guitar 3 (Right Speaker) - Play twice with different ending
D|--------------------------------------------|
A|--19-18---16-15-----------------------------|
F|------------------16-15---15---15-15-15-15--|
C|--------------------------------------------|
G|--------------------------------------------|
C|--------------------------------------------|


D|--------------------------------------------|
A|--------------------------------------------|
F|--16-15-------------------------------------|
C|----------16-15---13-12---12---12-12-12-12--|
G|--------------------------------------------|
C|--------------------------------------------|

                                        
D|--------------------------------------------|
A|--------------------------------------------|
F|--------------------------------------------|
C|--13-12-------------------------------------|
G|----------14-13---11-13---13---13-13-13-13--|
C|--------------------------------------------|

  1st ending          2nd ending
D|-------------------|---------------------|
A|-------------------|---------------------|
F|-------------------|---------------------|
C|-------------------|---------------------|
G|--13/14-14-14-14~--|--13\9-9-9-9-9-9-8~--|
C|-------------------|---------------------|




D|-----------------------------------|
A|-----------------------------------|
F|-----------------------------------|
C|----5h6---4h5---3h4---2h3----------|
G|----5h6---4h5---3h4---2h3-0-1-3-1--|
C|--0-5h6-0-4h5-0-3h4-0-2h3-0-1-3-1--|X2
PM  .     .     .     .     . . . .



D|-----------------------------------|
A|-----------------------------------|
F|-----------------------------------|
C|--3p2---4p3---3p2---4p3------------|
G|--3p2---4p3---3p2---4p3---3-2-1-0--|
C|--3p2-0-4p3-0-3p2-0-4p3-0-3-2-1-0--|X2
PM      .     .     .     . . . . .



D|-----------------------------------|
A|-----------------------------------|
F|-----------------------------------|
C|----5h6---4h5---3h4---2h3----------|
G|----5h6---4h5---3h4---2h3-0-1-3-1--|
C|--0-5h6-0-4h5-0-3h4-0-2h3-0-1-3-1--|X2
PM  .     .     .     .     . . . .



D|-----------------------------------|
A|-----------------------------------|
F|-----------------------------------|
C|--3p2---4p3---3p2---4p3------------|
G|--3p2---4p3---3p2---4p3---3-2-1-0--|
C|--3p2-0-4p3-0-3p2-0-4p3-0-3-2-1-0--|X2
PM      .     .     .     . . . . .



D|----------------------------------|
A|----------------------------------|
F|----------------------------------|
C|----------------------------------|
G|----------------------------------|
C|-0-000-000-000-000-000-000-000-00-|X2
PM   ... ... ... ... ... ... ... ..

D|----------------------------------|
A|----------------------------------|
F|----------------------------------|
C|----------------------------------|
G|----------------------------------|
C|-2-222-222-222-222-222-222-222-22-|
PM   ... ... ... ... ... ... ... ..

D|----------------------------------|
A|----------------------------------|
F|----------------------------------|
C|----------------------------------|
G|----------------------------------|
C|-3-333-333-333-336-666-666-666-66-|
PM   ... ... ... ..  ... ... ... ..



D|------------------------------------------------------------|
A|------------------------------------------------------------|
F|------------------------------------------------------------|
C|----5h6---4h5---3h4---2h3---5h6---4h5---3h4---2h3-----------|
G|----5h6---4h5---3h4---2h3---5h6---4h5---3h4---2h3-0-1-3-1-0-|
C|--0-5h6-0-4h5-0-3h4-0-2h3-0-5h6-0-4h5-0-3h4-0-2h3-0-1-3-1-0-|
PM  .     .     .     .     .     .     .     .     . . . .

Tap to rate this tab
# A B C D E F G H I J K L M N O P Q R S T U V W X Y Z