Song name
# A B C D E F G H I J K L M N O P Q R S T U V W X Y Z

Chimaira - The Venom Inside tab

Song      : The Venom Inside
Artist    : Chimaira
Album     : The Infection
Track     : 1
Tabbed By : nUmguitarist
Tuning    : CGCFAD

Pre-Intro : Guitar 1 (Clean)
00:01
|--------------------------------------------|
|--------------------------------------------|
|--/10-8--7h8p7-\5/7----/10-8--7h8p7-\5-\3---|
|--------------------------------------------|
|--------------------------------------------|
|--------------------------------------------|

|--------------------------------------------|
|--------------------------------------------|
|--/12-10--7h10-7\5/7----5-3-2-3-2p0---------|
|------------------------------------5-------|
|--------------------------------------------|
|--------------------------------------------|

|--------------------------------------------|
|--------------------------------------------|
|--/10-8--7h8p7-\5/7----/10-8--7h8p7-\5-\3---|
|--------------------------------------------|
|--------------------------------------------|
|--------------------------------------------|

|--------------------------------------------|
|--------------------------------------------|
|--/12-10--7h10-7\5/7---12-14-14-15-15-14-15-|
|--------------------------------------------|
|--------------------------------------------|
|--------------------------------------------|

The line's seperate each different part. 
Sounds like there's 4 guitars at times.

Intro : 00:31 

Guitar 1
|--------------------------------------------|
|--------------------------------------------|
|--/10-8--7h8p7-\5/7----/10-8--7h8p7-\5-\3---|
|--------------------------------------------|
|--------------------------------------------|
|--------------------------------------------|

Guitar 2
|--------------------------------------------|
|--------------------------------------------|
|--/10-8--7h8p7-\5/7----/10-8--7h8p7-\5-/7---|
|--------------------------------------------|
|--------------------------------------------|
|--------------------------------------------|

Guitar 3
|--------------------------------------------|
|--------------------------------------------|
|--------------------------------------------|
|-5~~~~~-----------3--5~~~~~--------------3--|
|-5~~~~~-----------3--5~~~~~--------------3--|
|-5~~~~~-----------3--5~~~~~--------------3--|
______________________________________________
______________________________________________
00:39
Guitar 1
|--------------------------------------------|
|--------------------------------------------|
|--/12-10--7h10-7\5/7---12-14-14-15-15-14-15-|
|--------------------------------------------|
|--------------------------------------------|
|--------------------------------------------|

Guitar 2 
|-15-13-11h13p11\10/11--15-17-17-18-18-17-18-|
|--------------------------------------------|
|--------------------------------------------|
|--------------------------------------------|
|--------------------------------------------|
|--------------------------------------------|

Guitar 3
|--------------------------------------------|
|--------------------------------------------|
|--/10-8--7h8p7-\5/7----/10-8--7h8p7-\5-/7---|
|--------------------------------------------|
|--------------------------------------------|
|--------------------------------------------|

Guitar 4
|--------------------------------------------|
|--------------------------------------------|
|--------------------------------------------|
|-1~~~~~----------1-1--1~~~~~---------0-1-3--|
|-1~~~~~----------1-1--1~~~~----------0-1-3--|
|-1~~~~~----------1-1--1~~~~~---------0-1-3--|
                  . .
______________________________________________
______________________________________________
00:47
Guitar 1
|--------------------------------------------|
|--------------------------------------------|
|--/10-8--7h8p7-\5/7----/10-8--7h8p7-\5-\3---|
|--------------------------------------------|
|--------------------------------------------|
|--------------------------------------------|

Guitar 2
|-----------------------------------|/(18)-18-20-22~-|
|-----------------------------------|----------------|
|-----------------------------------|----------------|
|-----------------------------------|----------------|
|-----------------------------------|----------------|
|-----------------------------------|----------------|

Guitar 3
|--------------------------------------------|
|--------------------------------------------|
|--/10-8--7h8p7-\5/7----/10-8--7h8p7-\5-/7---|
|--------------------------------------------|
|--------------------------------------------|
|--------------------------------------------|

Guitar 4
|--------------------------------------------|
|--------------------------------------------|
|--------------------------------------------|
|-5~~~~~--------------5~~~~~--------------3--|
|-5~~~~~--------------5~~~~~--------------3--|
|-5~~~~~--------------5~~~~~--------------3--|
______________________________________________
______________________________________________
00:53
Guitar 1
|-----------------------------------------------|
|-----------------------------------------------|
|--/12-10--7h10-7\5/7---12-14-14-15-15-14-15~~~-|
|-----------------------------------------------|
|-----------------------------------------------|
|-----------------------------------------------|

Guitar 2
|-(22)~~~~~~~~~~~-----20~~~~~~~~-18~~~----15~~~-|
|-----------------------------------------------|
|-----------------------------------------------|
|-----------------------------------------------|
|-----------------------------------------------|
|-----------------------------------------------|

Guitar 3
|-----------------------------------------------|
|-----------------------------------------------|
|--/10-8--7h8p7-\5/7----/10-8--7h8p7-\5-/7~~~---|
|-----------------------------------------------|
|-----------------------------------------------|
|-----------------------------------------------|

Guitar 4
|-----------------------------------------------|
|-----------------------------------------------|
|-----------------------------------------------|
|-1~~~~~----------1-1--1~~~~~-------0-1-3--5~~~-|
|-1~~~~~----------1-1--1~~~~~-------0-1-3--5~~~-|
|-1~~~~~----------1-1--1~~~~~-------0-1-3--5~~~-|
                  . .
______________________________________________
~~~~LET RING OUT WITH FEEDBACK 01:02-01:09~~~~
Tap to rate this tab
# A B C D E F G H I J K L M N O P Q R S T U V W X Y Z