Guitaretab - guitar tabs
Song name
# A B C D E F G H I J K L M N O P Q R S T U V W X Y Z

Chimaira - Secrets Of The Dead tab

This Is My First Tab Review And This Was All Learned By Ear When I Wasnt Even Listening 
The Song. Sounds Good To Me, It Doesnt Have To Be Right.

Drop D Tuning (I Guess)

Intro:
E----------------------------------------------------/
B----------------------------------------------------/
G-----11-----------11------------11------------------/
D--10---10------10---10-----10-10--10----------------/
A-9--9-----9---9--9----9---9--9------9-9-------------/
D----------------------------------------------------/


Harmonize With Intro:
E----------------------------------------------------/
B----------------------------------------------------/
G----------------------------------------------------/
D----------------------------------------------------/
A-2-0-000--2-0-000-00--2-0-000-2-0-00100--2-0-000-00-/
D-2-0-000--2-0-000-00--2-0-000-2-0-00100--2-0-000-00-/

E----------------------------------------------------/
B----------------------------------------------------/
G----------------------------------------------------/
D----------------------------------------------------/
A-3-4-000--3-4-00000--3-4-000--3-4-0-5432--5-6-0-----/
D-3-4-000--3-4-00000--3-4-000--3-4-0-------5-6-0-5432/

[ Tab from: http://www.guitaretab.com/c/chimaira/185177.html ]
E----------------------------------------------------/
B----------------------------------------------------/
G----------------------------------------------------/
D----------------------------------------------------/
A-3-4-000-3-4-0-5432--5-6-0-------5-6--5-7-----------/
D-3-4-000-3-4-0-------5-6-0-5432--5-6--5-7-----------/

Chorus:
E----------------------------------------------------/
B----------------------------------------------------/
G----------------------------------------------------/
D-555-7-8-555--555-4-55--555-7-8-555--555-4-55-------/
A-555-7-8-555--555-4-55--555-7-8-555--555-4-55-------/
D-555-7-8-555--555-4-55--555-7-8-555--555-4-55-------/

Heavyer Rift, Chorus:
E----------------------------------------------------/
B----------------------------------------------------/
G----------------------------------------------------/
D-222-4-5-222--222-1-22--222-4-5-222--222-4-5-22-----/
A-222-4-5-222--222-1-22--222-4-5-222--222-4-5-22-----/
D-222-4-5-222--222-1-22--222-4-5-222--222-4-5-22-----/

Outro:
E----------------------------------------------------/
B----------------------------------------------------/
G----------------------------------------------------/
D----------------------------------------------------/
A-0000-00-00-11110000-00-00-11110000-00-00-0000-00-00/
D-0000-00-00-11110000-00-00-11110000-00-00-0000-00-00/

That Was All By Ear And Im A Inexperienced Guitarist, You Can Figure This Song Out On 
Own.
Related for Secrets Of The Dead tab
×
Secrets Of The Dead