Song name
# A B C D E F G H I J K L M N O P Q R S T U V W X Y Z

Chimaira - The Venom Inside tab

Divided into parts from my guitar pro tab.

Intro Rhythm

    H.           E  E     H.           E  E   
E||---------------------|---------------------|
C||---------------------|---------------------|
G||---------------------|---------------------|
C||--5------------L--3--|--5------------L--3--|
G||--5------------L--3--|--5------------L--3--|
C||--5------------L--3--|--5------------L--3--|


  W                   H.           S  S E   
-------------------|-----------------------|
-------------------|-----------------------|
-------------------|-----------------------|
--1----------------|--1------------1s-3-3--|
--1----------------|--1------------1s-3-3--|
--1----------------|--1------------1s-3-3--|


  W                   H.           E  E   
-------------------|---------------------|
-------------------|---------------------|
-------------------|---------------------|
--5----------------|--5------------L--3--|
--5----------------|--5------------L--3--|
--5----------------|--5------------L--3--|


  W                   H.           S  S E         
-------------------|-----------------------|-----|
-------------------|-----------------------|-----|
-------------------|-----------------------|-----|
--1----------------|--1------------1s-3-3--|-----|
--1----------------|--1------------1s-3-3--|-----|
--1----------------|--1------------1s-3-3--|-----|




Intro Lead




     E.  T.  X   E   E   S   S   S  S  X   E.   T. 
D||-----------------------------------------------|
A||-----------------------------------------------|
F||-----------------------------------------------|
C||---------12s-15--13--12h-13p-12----10s-12----L-|
G||--------------------------------15-------------|
C||-----------------------------------------------|


   E.  T.  X   E   E   S  S  S  S  Q     
----------------------------------------|
----------------------------------------|
----------------------------------------|
---L---L--12s-15--13--12-13-12----------|
-------------------------------15-13----|
----------------------------------------|


   E.  T.  X   E   E   S   S   S  S  X   E.   T. 
------------------------------------------------|
------------------------------------------------|
------------------------------------------------|
----------15s-17--15--13h-15p-13-12-12s-13----L-|
---L---L----------------------------------------|
------------------------------------------------|


   E.  T. X   E  E  S  S  S  S Q     
------------------------------------|
------------------------------------|
------------------------------------|
---L---L--8s-10--8--7h-8p-7---------|
----------------------------10-L----|
------------------------------------|


  E.  T.  X   E   E   S   S   S  S  X   E.   T. 
-----------------------------------------------|
-----------------------------------------------|
-----------------------------------------------|
---------12s-15--13--12h-13p-12----10s-12----L-|
--L---L-------------------------15-------------|
-----------------------------------------------|


   E.  T.  X   E   E   S  S  S  S  Q     
----------------------------------------|
----------------------------------------|
----------------------------------------|
---L---L--12s-15--13--12-13-12----------|
-------------------------------15-13----|
----------------------------------------|


   E.  T.  X   E   E   S   S   S  S  X   E.   T. 
------------------------------------------------|
------------------------------------------------|
------------------------------------------------|
-------L--15s-17--15--13h-15p-13-12-12s-13----L-|
---L--------------------------------------------|
------------------------------------------------|


  E.  T.  X   E   E   S   S  S  S  Q                     
----------------------------------------|-------|-------|
----------------------------------------|-------|-------|
---------10s-12--14--14h-15-15-14-15----|-------|-------|
--L---L---------------------------------|-------|-------|
----------------------------------------|-------|-------|
----------------------------------------|-------|-------|




Background Intro Variation

D||-----------------------------------------------|
A||-----------------------------------------------|
F||-----------------------------------------------|
C||---------12s-15--13--12h-13p-12----10s-12----L-|
G||--------------------------------15-------------|
C||-----------------------------------------------|


   E.  T.  X   E   E   S  S  S  S  Q     
----------------------------------------|
----------------------------------------|
----------------------------------------|
---L---L--12s-15--13--12-13-12----------|
-------------------------------15-13----|
----------------------------------------|


   E.  T.  X   E   E   S   S   S  S  X   E.   T. 
------------------------------------------------|
------------------------------------------------|
------------------------------------------------|
----------15s-17--15--13h-15p-13-12-12s-13----L-|
---L---L----------------------------------------|
------------------------------------------------|


   E.  T. X   E  E  S  S  S  S Q     
------------------------------------|
------------------------------------|
------------------------------------|
---L---L--8s-10--8--7h-8p-7---------|
----------------------------10-L----|
------------------------------------|


  E.  T.  X   E   E   S   S   S  S  X   E.   T. 
-----------------------------------------------|
-----------------------------------------------|
-----------------------------------------------|
---------12s-15--13--12h-13p-12----10s-12----L-|
--L---L-------------------------15-------------|
-----------------------------------------------|


   E.  T.  X   E   E   S  S  S  S  E.   S  
------------------------------------------|
------------------------------------------|
----------------------------------15---17-|
---L---L--12s-15--13--12-13-12------------|
-------------------------------15---------|
------------------------------------------|


   W                    H        S   E.   Q     
--------------------|--------------------------|
--15----------------|--13--------9s-11----L----|
--------------------|--------------------------|
--------------------|--------------------------|
--------------------|--------------------------|
--------------------|--------------------------|


   W                   W                                 
--------------------|-------------------|-------|-------|
--------------------|-------------------|-------|-------|
--12----------------|--L----------------|-------|-------|
--------------------|-------------------|-------|-------|
--------------------|-------------------|-------|-------|
--------------------|-------------------|-------|-------|




Rhythm Guitar




  H.           E  E     H.           E  E   
---------------------|---------------------|
---------------------|---------------------|
---------------------|---------------------|
--5------------L--3--|--5------------L--3--|
--5------------L--3--|--5------------L--3--|
--5------------L--3--|--5------------L--3--|


  H.           E  S S    H.           S  S E   
----------------------|-----------------------|
----------------------|-----------------------|
----------------------|-----------------------|
--1------------L--1-1-|--1------------1s-3-3--|
--1------------L--1-1-|--1------------1s-3-3--|
--1------------L--1-1-|--1------------1s-3-3--|


  W                   H.           E  E   
-------------------|---------------------|
-------------------|---------------------|
-------------------|---------------------|
--5----------------|--5------------L--3--|
--5----------------|--5------------L--3--|
--5----------------|--5------------L--3--|


  H.           E  S S    H.           S  S E   
----------------------|-----------------------|
----------------------|-----------------------|
----------------------|-----------------------|
--1------------L--1-1-|--1------------1s-3-3--|
--1------------L--1-1-|--1------------1s-3-3--|
--1------------L--1-1-|--1------------1s-3-3--|


  W                   W                 
-------------------|-------------------|
-------------------|-------------------|
-------------------|-------------------|
--5----------------|--L----------------|
--5----------------|--L----------------|
--5----------------|--L----------------|


            PM PM   \3/               PM PM PM PM PM PM PM P
  T T T T T T  T  T Q    S T T T T S  T  T  T  T  T  T  T  T
------------------------------------------------------------
------------------------------------------------------------
------------------------------------------------------------
--3-3-3-3---3--2----3----3-3-3-3-3--------------------------
--3-3-3-3---3--2----3----3-3-3-3-3---15-15-16-16-19-19-18-17
--3-3-3-3---3--2----3----3-3-3-3-3---15-15-16-16-19-19-18-17


            PM PM   \3/              PM          
  T T T T T T  T  T Q    S T T T T S T  T S S S  
------------------------------------------------|
------------------------------------------------|
------------------------------------------------|
--3-3-3-3---3--2----3----3-3-3-3-3---1--3---4---|
--3-3-3-3---3--2----3----3-3-3-3-3---1--3---4---|
--3-3-3-3---3--2----3----3-3-3-3-3---1--3---4---|


            PM PM   \3/               PM PM PM PM PM PM PM P
  T T T T T T  T  T Q    S T T T T S  T  T  T  T  T  T  T  T
------------------------------------------------------------
------------------------------------------------------------
------------------------------------------------------------
--3-3-3-3---3--2----3----3-3-3-3-3--------------------------
--3-3-3-3---3--2----3----3-3-3-3-3---15-15-16-16-19-19-18-17
--3-3-3-3---3--2----3----3-3-3-3-3---15-15-16-16-19-19-18-17


            PM PM   \3/                             
  T T T T T T  T  T Q    S T T T T S X X X X S S S  
---------------------------------------------------|
---------------------------------------------------|
---------------------------------------------------|
--3-3-3-3---3--2----3----3-3-3-3-3---3-3-3-3---4---|
--3-3-3-3---3--2----3----3-3-3-3-3---3-3-3-3---4---|
--3-3-3-3---3--2----3----3-3-3-3-3---3-3-3-3---4---|


  PM PM PM PM   PM PM   \3/               PM PM PM PM PM PM 
  T  T  T  T  T T  T  T Q    S T T T T S  T  T  T  T  T  T  
------------------------------------------------------------
------------------------------------------------------------
------------------------------------------------------------
--3--3--3--3----3--2----3----3-3-3-3-3----------------------
--3--3--3--3----3--2----3----3-3-3-3-3---15-15-16-16-19-19-1
--3--3--3--3----3--2----3----3-3-3-3-3---15-15-16-16-19-19-1


            PM PM   \3/               PM PM PM PM PM PM PM P
  T T T T T T  T  T Q    S T T T T S  T  T  T  T  T  T  T  T
------------------------------------------------------------
------------------------------------------------------------
------------------------------------------------------------
--3-3-3-3---3--2----3----3-3-3-3-3--------------------------
--3-3-3-3---3--2----3----3-3-3-3-3---15-16-17-18-14-15-16-17
--3-3-3-3---3--2----3----3-3-3-3-3--------------------------


            PM PM   \3/               PM PM PM PM PM PM PM P
  T T T T T T  T  T Q    S T T T T S  T  T  T  T  T  T  T  T
------------------------------------------------------------
------------------------------------------------------------
------------------------------------------------------------
--3-3-3-3---3--2----3----3-3-3-3-3--------------------------
--3-3-3-3---3--2----3----3-3-3-3-3---15-15-16-16-19-19-18-17
--3-3-3-3---3--2----3----3-3-3-3-3---15-15-16-16-19-19-18-17


            PM PM   \3/              PM          
  T T T T T T  T  T Q    S T T T T S T  T S S S  
------------------------------------------------|
------------------------------------------------|
------------------------------------------------|
--3-3-3-3---3--2----3----3-3-3-3-3---1--3---4---|
--3-3-3-3---3--2----3----3-3-3-3-3---1--3---4---|
--3-3-3-3---3--2----3----3-3-3-3-3---1--3---4---|


  X X X X X X X X X X X X X X X X X X X X X X X X X X X X X 
------------------------------------------------------------
------------------------------------------------------------
------------------------------------------------------------
------------------------------------------------------------
------------------------------------------------------------
--3-3-3-3-3-3-3-3-3-3-3-3-3-3-3-3-3-4-4-4-4-4-3-3-3-3-3-1-1-


  X X X X X X X X X X X X X X X X X X X X X X X X X X X X X 
------------------------------------------------------------
------------------------------------------------------------
------------------------------------------------------------
------------------------------------------------------------
------------------------------------------------------------
--3-3-3-3-3-3-3-3-3-3-3-3-3-3-3-3-3-4-4-4-4-4-3-3-3-3-3-1-1-


  X X X X X X X X X X X X X X X X X X X X X X X X X X X X X 
------------------------------------------------------------
------------------------------------------------------------
------------------------------------------------------------
------------------------------------------------------------
------------------------------------------------------------
--3-3-3-3-3-3-3-3-3-3-3-3-3-3-3-3-3-4-4-4-4-4-3-3-3-3-3-1-1-


  X X X X X X X X X X X X X X X X X X X X X X X X X X X X X 
------------------------------------------------------------
------------------------------------------------------------
------------------------------------------------------------
------------------------------------------------------------
------------------------------------------------------------
--3-3-3-3-3-3-3-3-3-3-3-3-3-3-3-3-3-4-4-4-4-4-3-3-3-3-3-1-1-


            PM PM   \3/               PM PM PM PM PM PM PM P
  T T T T T T  T  T Q    S T T T T S  T  T  T  T  T  T  T  T
------------------------------------------------------------
------------------------------------------------------------
------------------------------------------------------------
--3-3-3-3---3--2----3----3-3-3-3-3--------------------------
--3-3-3-3---3--2----3----3-3-3-3-3---15-15-16-16-19-19-18-17
--3-3-3-3---3--2----3----3-3-3-3-3---15-15-16-16-19-19-18-17


            PM PM   \3/              PM          
  T T T T T T  T  T Q    S T T T T S T  T S S S  
------------------------------------------------|
------------------------------------------------|
------------------------------------------------|
--3-3-3-3---3--2----3----3-3-3-3-3---1--3---4---|
--3-3-3-3---3--2----3----3-3-3-3-3---1--3---4---|
--3-3-3-3---3--2----3----3-3-3-3-3---1--3---4---|


            PM PM   \3/               PM PM PM PM PM PM PM P
  T T T T T T  T  T Q    S T T T T S  T  T  T  T  T  T  T  T
------------------------------------------------------------
------------------------------------------------------------
------------------------------------------------------------
--3-3-3-3---3--2----3----3-3-3-3-3--------------------------
--3-3-3-3---3--2----3----3-3-3-3-3---15-15-16-16-19-19-18-17
--3-3-3-3---3--2----3----3-3-3-3-3---15-15-16-16-19-19-18-17


            PM PM   \3/                             
  T T T T T T  T  T Q    S T T T T S X X X X S S S  
---------------------------------------------------|
---------------------------------------------------|
---------------------------------------------------|
--3-3-3-3---3--2----3----3-3-3-3-3---3-3-3-3---4---|
--3-3-3-3---3--2----3----3-3-3-3-3---3-3-3-3---4---|
--3-3-3-3---3--2----3----3-3-3-3-3---3-3-3-3---4---|


  PM PM PM PM   PM PM   \3/               PM PM PM PM PM PM 
  T  T  T  T  T T  T  T Q    S T T T T S  T  T  T  T  T  T  
------------------------------------------------------------
------------------------------------------------------------
------------------------------------------------------------
--3--3--3--3----3--2----3----3-3-3-3-3----------------------
--3--3--3--3----3--2----3----3-3-3-3-3---15-15-16-16-19-19-1
--3--3--3--3----3--2----3----3-3-3-3-3---15-15-16-16-19-19-1


            PM PM   \3/               PM PM PM PM PM PM PM P
  T T T T T T  T  T Q    S T T T T S  T  T  T  T  T  T  T  T
------------------------------------------------------------
------------------------------------------------------------
------------------------------------------------------------
--3-3-3-3---3--2----3----3-3-3-3-3--------------------------
--3-3-3-3---3--2----3----3-3-3-3-3---15-16-17-18-14-15-16-17
--3-3-3-3---3--2----3----3-3-3-3-3--------------------------


            PM PM   \3/               PM PM PM PM PM PM PM P
  T T T T T T  T  T Q    S T T T T S  T  T  T  T  T  T  T  T
------------------------------------------------------------
------------------------------------------------------------
------------------------------------------------------------
--3-3-3-3---3--2----3----3-3-3-3-3--------------------------
--3-3-3-3---3--2----3----3-3-3-3-3---15-15-16-16-19-19-18-17
--3-3-3-3---3--2----3----3-3-3-3-3---15-15-16-16-19-19-18-17


            PM PM   \3/                             
  T T T T T T  T  T Q    S T T T T S X X X X S S S  
---------------------------------------------------|
---------------------------------------------------|
---------------------------------------------------|
--3-3-3-3---3--2----3----3-3-3-3-3---3-3-3-3---4---|
--3-3-3-3---3--2----3----3-3-3-3-3---3-3-3-3---4---|
--3-3-3-3---3--2----3----3-3-3-3-3---3-3-3-3---4---|


  X X X X X X X X X X X X X X X X X X X X X X X X X X X X X 
------------------------------------------------------------
------------------------------------------------------------
------------------------------------------------------------
------------------------------------------------------------
------------------------------------------------------------
--3-3-3-3-3-3-3-3-3-3-3-3-3-3-3-3-3-4-4-4-4-4-3-3-3-3-3-1-1-


  X X X X X X X X X X X X X X X X X X X X X X X X X X X X X 
------------------------------------------------------------
------------------------------------------------------------
------------------------------------------------------------
------------------------------------------------------------
------------------------------------------------------------
--3-3-3-3-3-3-3-3-3-3-3-3-3-3-3-3-3-4-4-4-4-4-3-3-3-3-3-1-1-


  X X X X X X X X X X X X X X X X X X X X X X X X X X X X X 
------------------------------------------------------------
------------------------------------------------------------
------------------------------------------------------------
------------------------------------------------------------
------------------------------------------------------------
--3-3-3-3-3-3-3-3-3-3-3-3-3-3-3-3-3-4-4-4-4-4-3-3-3-3-3-1-1-


  X X X X X X X X X X X X X X X X X X X X X X X X X X X X X 
------------------------------------------------------------
------------------------------------------------------------
------------------------------------------------------------
------------------------------------------------------------
------------------------------------------------------------
--3-3-3-3-3-3-3-3-3-3-3-3-3-3-3-3-3-4-4-4-4-4-3-3-3-3-3-1-1-


  \1                                                        
  W                   W                   W                 
-------------------|-------------------|-------------------|
-------------------|-------------------|-------------------|
-------------------|-------------------|-------------------|
--3----------------|--L----------------|-------------------|
--3----------------|--L----------------|-------------------|
--3----------------|--L----------------|-------------------|


  /1                                                       
                      |--3--|  |--3--|  |--3--|  |--3--|   
  W                   E  E  E  E  E  E  E  E  E  E  E  E   
-------------------|--------------------------------------|
-------------------|--------------------------------------|
-------------------|--------------------------------------|
--3----------------|--------------------------------------|
--3----------------|--------------------------------------|
--3----------------|--3--3--3--4--3--1--3--3--3--4--3--1--|


                                      PH   
  |--3--|  |--3--|            |---3---|    
  E  E  E  E  E  E  T  E   S. E  E    E    
------------------------------------------|
------------------------------------------|
------------------------------------------|
------------------------------------------|
------------------------------------------|
--3--3--3--4--3--1--4s-6~--L--4--6--<>4b--|


  |--3--|  |--3--|  |--3--|  |--3--|   
  E  E  E  E  E  E  E  E  E  E  E  E   
--------------------------------------|
--------------------------------------|
--------------------------------------|
--------------------------------------|
--------------------------------------|
--3--3--3--4--3--1--3--3--3--4--3--1--|


                                      PH   
  |--3--|  |--3--|            |---3---|    
  E  E  E  E  E  E  T  E   S. E  E    E    
------------------------------------------|
------------------------------------------|
------------------------------------------|
------------------------------------------|
------------------------------------------|
--3--3--3--4--3--1--4s-6~--L--4--6--<>4b--|


  \1      PM    \1      PM     
       |--3--|       |--3--|   
  Q    E  E  E  Q    E  E  E   
------------------------------|
------------------------------|
------------------------------|
--4----4--3--1--4----4--3--1--|
--4----4--3--1--4----4--3--1--|
--4----4--3--1--4----4--3--1--|


  \1      PM                        
       |--3--|            |--3--|   
  Q    E  E  E  T  E   S. E  E  E   
-----------------------------------|
-----------------------------------|
-----------------------------------|
--4----4--3--1--4s-6~-----4--6--4--|
--4----4--3--1--4s-6~-----4--6--4--|
--4----4--3--1--4s-6~--L--4--6--4--|


  \1      PM    \1      PM     
       |--3--|       |--3--|   
  Q    E  E  E  Q    E  E  E   
------------------------------|
------------------------------|
------------------------------|
--4----4--3--1--4----4--3--1--|
--4----4--3--1--4----4--3--1--|
--4----4--3--1--4----4--3--1--|


  \1      PM              PM PM PM          
       |--3--|            |--3--|           
  Q    E  E  E  T  E   S. E  E  E     Q     
-----------------------------------|-------|
-----------------------------------|-------|
-----------------------------------|-------|
--4----4--3--1--4s-6~-----4--6--4--|-------|
--4----4--3--1--4s-6~-----4--6--4--|-------|
--4----4--3--1--4s-6~--L--4--6--4--|-------|


  X X X X X X X X X X X X X X X X X X X X X X X X X X X X X 
------------------------------------------------------------
------------------------------------------------------------
------------------------------------------------------------
------------------------------------------------------------
------------------------------------------------------------
--3-3-3-3-3-3-3-3-3-3-3-3-3-3-3-3-3-4-4-4-4-4-3-3-3-3-3-1-1-


  X X X X X X X X X X X X X X X X X X X X X X X X X X X X X 
------------------------------------------------------------
------------------------------------------------------------
------------------------------------------------------------
------------------------------------------------------------
------------------------------------------------------------
--3-3-3-3-3-3-3-3-3-3-3-3-3-3-3-3-3-4-4-4-4-4-3-3-3-3-3-1-1-


  X X X X X X X X X X X X X X X X X X X X X X X X X X X X X 
------------------------------------------------------------
------------------------------------------------------------
------------------------------------------------------------
------------------------------------------------------------
------------------------------------------------------------
--3-3-3-3-3-3-3-3-3-3-3-3-3-3-3-3-3-4-4-4-4-4-3-3-3-3-3-1-1-


  X X X X X X X X X X X X X X X X X X X X X X X X X X X X X 
------------------------------------------------------------
------------------------------------------------------------
------------------------------------------------------------
------------------------------------------------------------
------------------------------------------------------------
--3-3-3-3-3-3-3-3-3-3-3-3-3-3-3-3-3-4-4-4-4-4-3-3-3-3-3-1-1-


  W                   H.           E  E   
-------------------|---------------------|
-------------------|---------------------|
-------------------|---------------------|
--5----------------|--5------------L--3--|
--5----------------|--5------------L--3--|
--5----------------|--5------------L--3--|


  H.           E  S S    H.           S  S E   
----------------------|-----------------------|
----------------------|-----------------------|
----------------------|-----------------------|
--1------------L--1-1-|--1------------1s-3-3--|
--1------------L--1-1-|--1------------1s-3-3--|
--1------------L--1-1-|--1------------1s-3-3--|


  W                   W                  
-------------------|-------------------||
-------------------|-------------------||
-------------------|-------------------||
--5----------------|--L----------------||
--5----------------|--L----------------||
--5----------------|--L----------------||





Lead Gutiar





  E.  T.  X   E   E   S   S   S  S  X   E.   T. 
-----------------------------------------------|
-----------------------------------------------|
-----------------------------------------------|
---------12s-15--13--12h-13p-12----10s-12----L-|
--------------------------------15-------------|
-----------------------------------------------|


   E.  T.  X   E   E   S  S  S  S  Q     
----------------------------------------|
----------------------------------------|
----------------------------------------|
---L---L--12s-15--13--12-13-12----------|
-------------------------------15-13----|
----------------------------------------|


   E.  T.  X   E   E   S   S   S  S  X   E.   T. 
------------------------------------------------|
------------------------------------------------|
------------------------------------------------|
----------15s-17--15--13h-15p-13-12-12s-13----L-|
---L---L----------------------------------------|
------------------------------------------------|


  E.  T.  X   E   E   S   S  S  S  Q      
-----------------------------------------|
-----------------------------------------|
---------10s-12--14--14h-15-15-14-15~----|
--L---L----------------------------------|
-----------------------------------------|
-----------------------------------------|


  E.  T.  X   E   E   S   S   S  S  X   E.   T. 
-----------------------------------------------|
-----------------------------------------------|
--L---L----------------------------------------|
---------12s-15--13--12h-13p-12----10s-12----L-|
--------------------------------15-------------|
-----------------------------------------------|


   E.  T.  X   E   E   S  S  S  S  Q     
----------------------------------------|
----------------------------------------|
----------------------------------------|
---L---L--12s-15--13--12-13-12----------|
-------------------------------15-13----|
----------------------------------------|


   E.  T.  X   E   E   S   S   S  S  X   E.   T. 
------------------------------------------------|
------------------------------------------------|
------------------------------------------------|
-------L--15s-17--15--13h-15p-13-12-12s-13----L-|
---L--------------------------------------------|
------------------------------------------------|


  E.  T.  X   E   E   S   S  S  S  Q     
----------------------------------------|
----------------------------------------|
---------10s-12--14--14h-15-15-14-15----|
--L---L---------------------------------|
----------------------------------------|
----------------------------------------|


  W                   W                 
-------------------|-------------------|
-------------------|-------------------|
-------------------|-------------------|
--5----------------|--L----------------|
--5----------------|--L----------------|
--5----------------|--L----------------|


            PM PM   \3/               PM PM PM PM PM PM PM P
  T T T T T T  T  T Q    S T T T T S  T  T  T  T  T  T  T  T
------------------------------------------------------------
------------------------------------------------------------
------------------------------------------------------------
--3-3-3-3---3--2----3----3-3-3-3-3--------------------------
--3-3-3-3---3--2----3----3-3-3-3-3---15-15-16-16-19-19-18-17
--3-3-3-3---3--2----3----3-3-3-3-3---15-15-16-16-19-19-18-17


            PM PM   \3/              PM          
  T T T T T T  T  T Q    S T T T T S T  T S S S  
------------------------------------------------|
------------------------------------------------|
------------------------------------------------|
--3-3-3-3---3--2----3----3-3-3-3-3---1--3---4---|
--3-3-3-3---3--2----3----3-3-3-3-3---1--3---4---|
--3-3-3-3---3--2----3----3-3-3-3-3---1--3---4---|


            PM PM   \3/               PM PM PM PM PM PM PM P
  T T T T T T  T  T Q    S T T T T S  T  T  T  T  T  T  T  T
------------------------------------------------------------
------------------------------------------------------------
------------------------------------------------------------
--3-3-3-3---3--2----3----3-3-3-3-3--------------------------
--3-3-3-3---3--2----3----3-3-3-3-3---15-15-16-16-19-19-18-17
--3-3-3-3---3--2----3----3-3-3-3-3---15-15-16-16-19-19-18-17


            PM PM   \3/                             
  T T T T T T  T  T Q    S T T T T S X X X X S S S  
---------------------------------------------------|
---------------------------------------------------|
---------------------------------------------------|
--3-3-3-3---3--2----3----3-3-3-3-3---3-3-3-3---4---|
--3-3-3-3---3--2----3----3-3-3-3-3---3-3-3-3---4---|
--3-3-3-3---3--2----3----3-3-3-3-3---3-3-3-3---4---|


  PM PM PM PM   PM PM   \3/               PM PM PM PM PM PM 
  T  T  T  T  T T  T  T Q    S T T T T S  T  T  T  T  T  T  
------------------------------------------------------------
------------------------------------------------------------
------------------------------------------------------------
--3--3--3--3----3--2----3----3-3-3-3-3----------------------
--3--3--3--3----3--2----3----3-3-3-3-3---15-15-16-16-19-19-1
--3--3--3--3----3--2----3----3-3-3-3-3---15-15-16-16-19-19-1


            PM PM   \3/               PM PM PM PM PM PM PM P
  T T T T T T  T  T Q    S T T T T S  T  T  T  T  T  T  T  T
------------------------------------------------------------
------------------------------------------------------------
------------------------------------------------------------
--3-3-3-3---3--2----3----3-3-3-3-3--------------------------
--3-3-3-3---3--2----3----3-3-3-3-3---15-16-17-18-14-15-16-17
--3-3-3-3---3--2----3----3-3-3-3-3--------------------------


            PM PM   \3/               PM PM PM PM PM PM PM P
  T T T T T T  T  T Q    S T T T T S  T  T  T  T  T  T  T  T
------------------------------------------------------------
------------------------------------------------------------
------------------------------------------------------------
--3-3-3-3---3--2----3----3-3-3-3-3--------------------------
--3-3-3-3---3--2----3----3-3-3-3-3---15-15-16-16-19-19-18-17
--3-3-3-3---3--2----3----3-3-3-3-3---15-15-16-16-19-19-18-17


            PM PM   \3/              PM          
  T T T T T T  T  T Q    S T T T T S T  T S S S  
------------------------------------------------|
------------------------------------------------|
------------------------------------------------|
--3-3-3-3---3--2----3----3-3-3-3-3---1--3---4---|
--3-3-3-3---3--2----3----3-3-3-3-3---1--3---4---|
--3-3-3-3---3--2----3----3-3-3-3-3---1--3---4---|


   X  X  X  X  X  X  X  X  X  X  X  X  X  X  X  X  X  X  X  
------------------------------------------------------------
------------------------------------------------------------
--10-10-10-10-10-10-10-10-10-10-10-10-10-10-10-10-10-11-11-1
------------------------------------------------------------
------------------------------------------------------------
------------------------------------------------------------


   X  X  X  X  X  X  X  X  X  X  X  X  X  X  X  X  X  X  X  
------------------------------------------------------------
------------------------------------------------------------
--10-10-10-10-10-10-10-10-10-10-10-10-10-10-10-10-10-11-11-1
------------------------------------------------------------
------------------------------------------------------------
------------------------------------------------------------


   X  X  X  X  X  X  X  X  X  X  X  X  X  X  X  X  X  X  X  
------------------------------------------------------------
------------------------------------------------------------
--10-10-10-10-10-10-10-10-10-10-10-10-10-10-10-10-10-11-11-1
------------------------------------------------------------
------------------------------------------------------------
------------------------------------------------------------


   X  X  X  X  X  X  X  X  X  X  X  X  X  X  X  X  X  X  X  
------------------------------------------------------------
------------------------------------------------------------
--10-10-10-10-10-10-10-10-10-10-10-10-10-10-10-10-10-11-11-1
------------------------------------------------------------
------------------------------------------------------------
------------------------------------------------------------


   E   E   H.            
------------------------|
------------------------|
--10---L\---------------|
------------------------|
------------------------|
------------------------|


            PM PM   \3/              PM          
  T T T T T T  T  T Q    S T T T T S T  T S S S  
------------------------------------------------|
------------------------------------------------|
------------------------------------------------|
--3-3-3-3---3--2----3----3-3-3-3-3---1--3---4---|
--3-3-3-3---3--2----3----3-3-3-3-3---1--3---4---|
--3-3-3-3---3--2----3----3-3-3-3-3---1--3---4---|


            PM PM   \3/               PM PM PM PM PM PM PM P
  T T T T T T  T  T Q    S T T T T S  T  T  T  T  T  T  T  T
------------------------------------------------------------
------------------------------------------------------------
------------------------------------------------------------
--3-3-3-3---3--2----3----3-3-3-3-3--------------------------
--3-3-3-3---3--2----3----3-3-3-3-3---15-15-16-16-19-19-18-17
--3-3-3-3---3--2----3----3-3-3-3-3---15-15-16-16-19-19-18-17


            PM PM   \3/                             
  T T T T T T  T  T Q    S T T T T S X X X X S S S  
---------------------------------------------------|
---------------------------------------------------|
---------------------------------------------------|
--3-3-3-3---3--2----3----3-3-3-3-3---3-3-3-3---4---|
--3-3-3-3---3--2----3----3-3-3-3-3---3-3-3-3---4---|
--3-3-3-3---3--2----3----3-3-3-3-3---3-3-3-3---4---|


  PM PM PM PM   PM PM   \3/               PM PM PM PM PM PM 
  T  T  T  T  T T  T  T Q    S T T T T S  T  T  T  T  T  T  
------------------------------------------------------------
------------------------------------------------------------
------------------------------------------------------------
--3--3--3--3----3--2----3----3-3-3-3-3----------------------
--3--3--3--3----3--2----3----3-3-3-3-3---15-15-16-16-19-19-1
--3--3--3--3----3--2----3----3-3-3-3-3---15-15-16-16-19-19-1


            PM PM   \3/               PM PM PM PM PM PM PM P
  T T T T T T  T  T Q    S T T T T S  T  T  T  T  T  T  T  T
------------------------------------------------------------
------------------------------------------------------------
------------------------------------------------------------
--3-3-3-3---3--2----3----3-3-3-3-3--------------------------
--3-3-3-3---3--2----3----3-3-3-3-3---15-16-17-18-14-15-16-17
--3-3-3-3---3--2----3----3-3-3-3-3--------------------------


            PM PM   \3/               PM PM PM PM PM PM PM P
  T T T T T T  T  T Q    S T T T T S  T  T  T  T  T  T  T  T
------------------------------------------------------------
------------------------------------------------------------
------------------------------------------------------------
--3-3-3-3---3--2----3----3-3-3-3-3--------------------------
--3-3-3-3---3--2----3----3-3-3-3-3---15-15-16-16-19-19-18-17
--3-3-3-3---3--2----3----3-3-3-3-3---15-15-16-16-19-19-18-17


            PM PM   \3/              PM          
  T T T T T T  T  T Q    S T T T T S T  T S S S  
------------------------------------------------|
------------------------------------------------|
------------------------------------------------|
--3-3-3-3---3--2----3----3-3-3-3-3---1--3---4---|
--3-3-3-3---3--2----3----3-3-3-3-3---1--3---4---|
--3-3-3-3---3--2----3----3-3-3-3-3---1--3---4---|


   X  X  X  X  X  X  X  X  X  X  X  X  X  X  X  X  X  X  X  
------------------------------------------------------------
------------------------------------------------------------
--10-10-10-10-10-10-10-10-10-10-10-10-10-10-10-10-10-11-11-1
------------------------------------------------------------
------------------------------------------------------------
------------------------------------------------------------


   X  X  X  X  X  X  X  X  X  X  X  X  X  X  X  X  X  X  X  
------------------------------------------------------------
------------------------------------------------------------
--10-10-10-10-10-10-10-10-10-10-10-10-10-10-10-10-10-11-11-1
------------------------------------------------------------
------------------------------------------------------------
------------------------------------------------------------


   X  X  X  X  X  X  X  X  X  X  X  X  X  X  X  X  X  X  X  
------------------------------------------------------------
------------------------------------------------------------
--10-10-10-10-10-10-10-10-10-10-10-10-10-10-10-10-10-11-11-1
------------------------------------------------------------
------------------------------------------------------------
------------------------------------------------------------


   E   X  X  X  X  X  X  X  X  X  X  X  X  X  X  X  X  X  X 
------------------------------------------------------------
------------------------------------------------------------
--10--10-10-10-10-10-10-10-10-10-10-10-10-10-10-10-10-11-11-
------------------------------------------------------------
------------------------------------------------------------
------------------------------------------------------------


   \6                                    
   W                   W                 
--------------------|-------------------|
--------------------|-------------------|
--10----------------|--L----------------|
--------------------|-------------------|
--------------------|-------------------|
--------------------|-------------------|


  W                   W                 
-------------------|-------------------|
-------------------|-------------------|
-------------------|-------------------|
-------------------|--0----------------|
-------------------|--0----------------|
-------------------|--0----------------|


  |--3--|  |--3--|  |--3--|  |--3--|   
  E  E  E  E  E  E  E  E  E  E  E  E   
--------------------------------------|
--------------------------------------|
--------------------------------------|
--------------------------------------|
--------------------------------------|
--3--3--3--4--3--1--3--3--3--4--3--1--|


                                      PH   
  |--3--|  |--3--|            |---3---|    
  E  E  E  E  E  E  T  E   S. E  E    E    
------------------------------------------|
------------------------------------------|
------------------------------------------|
------------------------------------------|
------------------------------------------|
--3--3--3--4--3--1--4s-6~--L--4--6--<>4b--|


  |--3--|  |--3--|  |--3--|  |--3--|   
  E  E  E  E  E  E  E  E  E  E  E  E   
--------------------------------------|
--------------------------------------|
--------------------------------------|
--------------------------------------|
--------------------------------------|
--3--3--3--4--3--1--3--3--3--4--3--1--|


                                      PH   
  |--3--|  |--3--|            |---3---|    
  E  E  E  E  E  E  T  E   S. E  E    E    
------------------------------------------|
------------------------------------------|
------------------------------------------|
------------------------------------------|
------------------------------------------|
--3--3--3--4--3--1--4s-6~--L--4--6--<>4b--|


  \1      PM    \1      PM     
       |--3--|       |--3--|   
  Q    E  E  E  Q    E  E  E   
------------------------------|
------------------------------|
------------------------------|
--4----4--3--1--4----4--3--1--|
--4----4--3--1--4----4--3--1--|
--4----4--3--1--4----4--3--1--|


  \1      PM                        
       |--3--|            |--3--|   
  Q    E  E  E  T  E   S. E  E  E   
-----------------------------------|
-----------------------------------|
-----------------------------------|
--4----4--3--1--4s-6~-----4--6--4--|
--4----4--3--1--4s-6~-----4--6--4--|
--4----4--3--1--4s-6~--L--4--6--4--|


  \1      PM    \1      PM     
       |--3--|       |--3--|   
  Q    E  E  E  Q    E  E  E   
------------------------------|
------------------------------|
------------------------------|
--4----4--3--1--4----4--3--1--|
--4----4--3--1--4----4--3--1--|
--4----4--3--1--4----4--3--1--|


  \1      PM              PM PM PM        
       |--3--|            |--3--|     --- 
  Q    E  E  E  T  E   S. E  E  E         
-----------------------------------|-----|
-----------------------------------|-----|
-----------------------------------|-----|
--4----4--3--1--4s-6~-----4--6--4--|-----|
--4----4--3--1--4s-6~-----4--6--4--|-----|
--4----4--3--1--4s-6~--L--4--6--4--|-----|


   X  X  X  X  X  X  X  X  X  X  X  X  X  X  X  X  X  X  X  
------------------------------------------------------------
------------------------------------------------------------
--10-10-10-10-10-10-10-10-10-10-10-10-10-10-10-10-10-11-11-1
------------------------------------------------------------
------------------------------------------------------------
------------------------------------------------------------


   X  X  X  X  X  X  X  X  X  X  X  X  X  X  X  X  X  X  X  
------------------------------------------------------------
------------------------------------------------------------
--10-10-10-10-10-10-10-10-10-10-10-10-10-10-10-10-10-11-11-1
------------------------------------------------------------
------------------------------------------------------------
------------------------------------------------------------


   X  X  X  X  X  X  X  X  X  X  X  X  X  X  X  X  X  X  X  
------------------------------------------------------------
------------------------------------------------------------
--10-10-10-10-10-10-10-10-10-10-10-10-10-10-10-10-10-11-11-1
------------------------------------------------------------
------------------------------------------------------------
------------------------------------------------------------


   X  X  X  X  X  X  X  X  X  X  X  X  X  X  X  X  X  X  X  
------------------------------------------------------------
------------------------------------------------------------
--10-10-10-10-10-10-10-10-10-10-10-10-10-10-10-10-10-11-11-1
------------------------------------------------------------
------------------------------------------------------------
------------------------------------------------------------


  E.  T.  X   E   E   S   S   S  S  X   E.   T. 
-----------------------------------------------|
-----------------------------------------------|
-----------------------------------------------|
---------12s-15--13--12h-13p-12----10s-12----L-|
--------------------------------15-------------|
-----------------------------------------------|


   E.  T.  X   E   E   S  S  S  S  E.   S  
------------------------------------------|
------------------------------------------|
----------------------------------15---17-|
---L---L--12s-15--13--12-13-12------------|
-------------------------------15---------|
------------------------------------------|


   W                    H        S   E.   Q     
--------------------|--------------------------|
--15----------------|--13--------9s-11----L----|
--------------------|--------------------------|
--------------------|--------------------------|
--------------------|--------------------------|
--------------------|--------------------------|


   W                   W                  
--------------------|-------------------||
--------------------|-------------------||
--12----------------|--L----------------||
--------------------|-------------------||
--------------------|-------------------||
--------------------|-------------------||




Duration Legend
---------------
W - whole
H - half
Q - quarter
E - 8th
S - 16th
T - 32nd
X - 64th
. - note dotted
|-n-|  - n-tuplets


Tablature Legend
----------------
L - tied note
x - dead note
g - grace note
(n) - ghost note
> - accentuded note
NH - natural harmonic
AH - artificial harmonic
TH - tapped harmonic
SH - semi harmonic
PH - pitch harmonic
h - hammer on
p - pull off
b - bend
br - bendRelease
pb - preBend
pbr - preBendRelease
brb - bendReleaseBend
\n/ - tremolo bar dip
\n - tremolo bar dive
-/n - tremolo bar Release up
/n\ - tremolo bar inverted dip
/n - tremolo bar return
-\n - tremolo bar Release down
S - shift slide
s - legato slide
/ -  slide into from below or out of upwards
\ -  slide into from above or out of downwards
~ - vibrato
W - wide vibrato
tr - trill
TP - tremolo picking
T - tapping
S - slap
P - pop
< - fade in
^ - brush up
v - brush down





Tap to rate this tab
# A B C D E F G H I J K L M N O P Q R S T U V W X Y Z