Song name
# A B C D E F G H I J K L M N O P Q R S T U V W X Y Z

Chimaira - On Broken Glass tab

This is one of the most kick ass songs on the new album!  That's all I have for now.  
fun and feel free to correct any mistakes but, I think its right!

Tuning drop C
CGCFAD low to high

INTRO
D---------------------------------------------|
A---------------------------------------------|
F---------------------------------------------|
C-----------3-----------3-------------------3-|
G-000-1-0-2---000-1-0-2---000-1-0-000-1-0-2---|
C---------------------------------------------|

VERSE
C------------------------------------------------|
A------------------------------------------------|
F------------------------------------------------|
C-----------3------------------------------------|
G-000-1-0-2-----5-------3------------------------|
C-------------0---6-5-3---5-3-2------------------|

the end run of the verse is the same as the rest but, only pick the first note on the G 
hammer on the rest of the notes on C

C---------------------------------------------|
A---------------------------------------------|
F---------------------------------------------|
C---------------------------------------------|
G-5-------3-----------------------------------|
C--h6h5h3--h5h3h2-----------------------------|

CHORUS
C---2-----------------------------------------|
A---2-----------------------------------------|
F---------------------------------------------|
C-1-------------------------------3-----------|
G-1---5/6---2/3-000-2-1-000-1-0-2-------------|
C-1---5/6-0-2/3-000-2-1-----------------------|

end run from verse (all picked) leads back into verse 2
Tap to rate this tab
# A B C D E F G H I J K L M N O P Q R S T U V W X Y Z