Song name
# A B C D E F G H I J K L M N O P Q R S T U V W X Y Z

Chimaira - On Broken Glass tab

Chimaira
On Broken Glass

Drop C


All the palm mutes in the intro aply to the rest of the song.
I cant figure out the solo. the rest was simple to figure out.


Intro
d|------------------------------------------|
A|o-----------------------------------------|
F|------------------------------------------|
C|-------------3--------------3-------------|
G|o-000------1-----000------1-----000-------|
C|------3-0------------3-0------------3-0---|
    ... . .        ... . .        ... . .                

d|--------------------------------------|
A|-------------------------------------o|
F|--------------------------------------|
C|---------------3----------------------|
G|--000-------1--------0-------1-------o|
C|-------3-0-------3-0---2-1-0---2-1-0--|
    ...  . .       . .    


Verse
d|-------------------------------------|
A|o------------------------------------|
F|-------------------------------------|
C|--------------3----------------------|
G|o-000-------1-------0-------1--------|
C|-------3-0------2-0---2-1-0---2-1-0--|


d|--------------------------------------|
A|--------------------------------------|
F|--------------------------------------|
C|--------------3-----------------------|
G|--000-------1-------3-------4---00000-|
C|-------3-0------2-0---2-1-0---2-------|


d|-------------------------------------|
A|-------------------------------------|
F|-------------------------------------|
C|--------------3----------------------|
G|--000-------1-------0-------1--------|
C|-------3-0------2-0---2-1-0---2-1-0--|


d|------------------------------------------------|
A|-----------------------------------------------o|
F|------------------------------------------------|
C|--------------3---------------------------------|
G|--000-------1-------3-------4--4h5p4p3---------o|
C|-------3-0------2-0---2-1-0------------6p5p4p3--|


Chorus
d|-----5----------------------------------------------------|
A|-----3----------------------------------------------------|
F|-----2----------------------------------------------------|
C|-0----------3-4---4-3-------1--0--------------------3-----|
G|-0----------3-4---4-3-------1--0-------000-------1--------|
C|-0-----0-0--3-4-0-4-3-0-0-0-1--0--0-0-------3-0-------0-0-|
         . .      .     . . .       . .  ...  . .       . .

d|-----5----------------------------------------------------|
A|-----3----------------------------------------------------|
F|-----2----------------------------------------------------|
C|-0----------3-4---4-3-------1--3--------------------3-----|
G|-0----------3-4---4-3-------1--3-------000-------1--------|
C|-0-----0-0--3-4-0-4-3-0-0-0-1--3--0-0-------3-0-------0-0-|
         . .      .     . . .       . .  ...  . .       . .

d|-----5----------------------------------------------------|
A|-----3----------------------------------------------------|
F|-----2----------------------------------------------------|
C|-0----------3-4---4-3-------1--3--------------------3-----|
G|-0----------3-4---4-3-------1--3-------000-------1--------|
C|-0-----0-0--3-4-0-4-3-0-0-0-1--3--0-0-------3-0-------0-0-|
         . .      .     . . .       . .  ...  . .       . .

d|-----5----------------------------------------------------|
A|-----3----------------------------------------------------|
F|-----2----------------------------------------------------|
C|-0----------3-4---4-3-------1--0--------------------3-----|
G|-0----------3-4---4-3-------1--0-------000-------1--------|
C|-0-----0-0--3-4-0-4-3-0-0-0-1--0--0-0-------3-0-------0-0-|
         . .      .     . . .       . .  ...  . .       . .

d|-----------------------|
A|-----------------------|
F|-----------------------|
C|-----------------------|
G|------0-------1--------|
C|--3-0---2-1-0---2-1-0--|

Pre-Verse
d|-------------------------------------|
A|o------------------------------------|
F|-------------------------------------|
C|--------------3----------------------|
G|o-000-------1-------0-------1--------|
C|-------3-0------2-0---2-1-0---2-1-0--|


d|--------------------------------------|
A|--------------------------------------|
F|--------------------------------------|
C|--------------3-----------------------|
G|--000-------1-------3-------4---00000-|
C|-------3-0------2-0---2-1-0---2-------|


d|-------------------------------------|
A|-------------------------------------|
F|-------------------------------------|
C|--------------3----------------------|
G|--000-------1-------0-------1--------|
C|-------3-0------2-0---2-1-0---2-1-0--|


d|------------------------------------------------|
A|-----------------------------------------------o|
F|------------------------------------------------|
C|--------------3---------------------------------|
G|--000-------1-------3-------4--4h5p4p3---------o|
C|-------3-0------2-0---2-1-0------------6p5p4p3--|


Verse
d|-------------------------------------|
A|o------------------------------------|
F|-------------------------------------|
C|--------------3----------------------|
G|o-000-------1-------0-------1--------|
C|-------3-0------2-0---2-1-0---2-1-0--|


d|--------------------------------------|
A|--------------------------------------|
F|--------------------------------------|
C|--------------3-----------------------|
G|--000-------1-------3-------4---00000-|
C|-------3-0------2-0---2-1-0---2-------|


d|-------------------------------------|
A|-------------------------------------|
F|-------------------------------------|
C|--------------3----------------------|
G|--000-------1-------0-------1--------|
C|-------3-0------2-0---2-1-0---2-1-0--|


d|------------------------------------------------|
A|-----------------------------------------------o|
F|------------------------------------------------|
C|--------------3---------------------------------|
G|--000-------1-------3-------4--4h5p4p3---------o|
C|-------3-0------2-0---2-1-0------------6p5p4p3--|


d|------------|
A|------------|
F|--6---------|
C|------------|
G|--4---------|
C|------------|

Break
d|--------------------------------|
A|o------------------------------o|
F|--------------------------------|
C|--------------------------------|
G|o-5-2--2h5p2h5p2h5-6-3-6p3h6/9-o|
C|--------------------------------|

Heavey Break
d|------------------------------------|
A|------------------------------------|
F|------------------------------------|
C|--0-2---2-3-2-3-2-3---5-2--5-2-5-3--|
G|--0-2---2-3-2-3-2-3---5-2--5-2-5-3--|
C|--0-2---2-3-2-3-2-3---5-2--5-2-5-3--|


d|--------------------------------------------------|
A|--------------------------------------------------|
F|--------------------------------------------------|
C|--0-2---2-3-2-3-2-3---5-2-------------------------|
G|--0-2---2-3-2-3-2-3---5-2---0-(3)-(3)-(3)-(3)-(3)-|
C|--0-2---2-3-2-3-2-3---5-2-------------------------|


d|------------------------------------|
A|------------------------------------|
F|------------------------------------|
C|--0-2---2-3-2-3-2-3---5-2--5-2-5-3--|
G|--0-2---2-3-2-3-2-3---5-2--5-2-5-3--|
C|--0-2---2-3-2-3-2-3---5-2--5-2-5-3--|


d|------------|
A|------------|
F|--6---------|
C|--5---------|
G|--4---------|
C|------------|

thats all i know, but im positive its correct.
Tap to rate this tab
# A B C D E F G H I J K L M N O P Q R S T U V W X Y Z