Song name
# A B C D E F G H I J K L M N O P Q R S T U V W X Y Z

Chimaira - Impending Doom tab

Chimaira - Impending Doom
The Infection
Drop C
C G C F A D

Verse (Very lightly distorted)
D|-------------------------------------------|
A|---------------------------------10--------|
F|-----/7-9~-9-10-9-----/7-9~-9h10----10-9---|
C|-------------------------------------------|
G|-------------------------------------------|
C|-------------------------------------------|

                                             
D|------------------------------------------|
A|---------------------------------10-------|
F|-----/7-9~-9h10p9-----/7-9~-9h10----10-9--|
C|------------------------------------------|
G|------------------------------------------|
C|------------------------------------------|

Heavily distorted
D|------------------|
A---------10--------|
F|--/9h10----10-9---|
C|------------------|
G|------------------|
C|------------------|


Chorus
D|--------------------------------------------------------------|
A|--------------------------------------------------------------|
F|---7-5---77-5-7--------------7-77-55---5\3-33-----------------|
C|---7-5---77-5-7--------------7-77-55---5\3-33-----------------|
G|---5-3---55-3-5--------------5-55-33-0-3\1-11-----------------|
C|-----------------0-0-0-0-0-----------0--------0-0-0-0-0-0-0-0-|
                   . . . . .                    . . . . . . . .

D|---------------------------------------------------------------|
A|---------------------------------------------------------------|
F|---3-2-------------------------------22------------------------|
C|---3-2--55-3-5-------8---7---5---7---22-00---------------------|
G|---1-0--55-3-5-------8---7---5---7---00-00---------------------|
C|--------55-3-5-0-0-0-8-0-7-0-5-0-7-0-------0-0-0-0-0-0-0-0-----|
                 . . .   .   .   .   .       . . . . . . . .

Second time round finish with this
D|----------|
A|----------|
F|---7-5----|
C|---7-5-0--|
G|---5-3-0--|
C|----------|

Verse
D|------------------------------------------|
A|---------------------------------10-------|
F|-----/7-9~-9h10p9-----/7-9~-9h10----10-9--|
C|------------------------------------------|
G|------------------------------------------|
C|------------------------------------------|

D|------------------|
A---------10--------|
F|--/9h10----10-9---|
C|------------------|
G|------------------|
C|------------------|

Chorus
D|--------------------------------------------------------------|
A|--------------------------------------------------------------|
F|---7-5---77-5-7--------------7-77-55---5\3-3------------------|
C|---7-5---77-5-7--------------7-77-55---5\3-3------------------|
G|---5-3---55-3-5--------------5-55-33-0-3\1-1------------------|
C|-----------------0-0-0-0-0-----------0--------0-0-0-0-0-0-0-0-|
                   . . . . .                    . . . . . . . .

D|---------------------------------------------------------------|
A|---------------------------------------------------------------|
F|---3-2-------------------------------22------------------------|
C|---3-2--55-3-5-------8---7---5---7---22-00---------------------|
G|---1-0--55-3-5-------8---7---5---7---00-00---------------------|
C|--------55-3-5-0-0-0-8-0-7-0-5-0-7-0-------0-0-0-0-0-0-0-0-----| 2nd time end with pickslide
                 . . .   .   .   .   .       . . . . . . . .

Bridge
D|----------------------------------------|
A|----------------------------------------|
F|----------------------------------------|
C|----------------------------------------|
G|--------0--------2--------3--8--7-------|
C|-00-000-0-22-222-2-33-333-3--8--7-------|
   .. ...   .. ...   .. ...

No Lead for this yet

Breakdown
D|-------------------------------------------------|
A|-------------------------------------------------| 
F|-------------------------------------------------| 
C|---7-8-5-----------------------------------------|  
G|-------------7-8-5----3-5-1-----3---5--X-XX-XXXX-|  
C|---------000-------00-------0-0-3-0-5--X-XX-XXXX-|
           ...       ..       . .   .       ^Alternates with slides and bends sometimes.
                                             Bends are on the 3rd fret.

D|--------------------------------------------------------|
A|--------------------------------------------------------| 
F|-------------------------------------7-8-5--------------| 
C|-33333333-66666666-22222222-55555555-----------7-8-5----|  
G|-11111111-44444444-00000000-33333333--------------------|  
C|-------------------------------------------000-------00-|
                                             ...       ..

D|---------------------------------------|
A|---------------------------------------| 
F|--------------------7-8-5--------------| 
C|-66666666-22222222------------7-8-5----|  
G|-44444444-00000000---------------------|  
C|--------------------------000-------00-|
                            ...       ..

D|----------------------------------------|
A|----------------------------------------| 
F|---------------------7-8-5--------------| 
C|-2222-5555------3333-----------7-8-5----|  
G|-0000-3333-5555-1111--------------------|  
C|-----------5555------------000-------00-|
                             ...       ..

D|------------------------------------------------------------------------------------|
A|------------------------------------------------------------------------------------| 
F|------------------------------------------------------------------------------------| 
C|-66666666-88888888-1010101010101010-12-12-12-12-12-12-12-12-12-12-12-12-12-12-12-12-|  
G|-44444444-66666666-8-8-8-8-8-8-8-8--10-10-10-10-10-10-10-10-10-10-10-10-10-10-10-10-|  
C|------------------------------------------------------------------------------------|

Chorus
D|--------------------------------------------------------------|
A|--------------------------------------------------------------|
F|---7-5---77-5-7--------------7-77-55---5\3-33-----------------|
C|---7-5---77-5-7--------------7-77-55---5\3-33-----------------|
G|---5-3---55-3-5--------------5-55-33-0-3\1-11-----------------|
C|-----------------0-0-0-0-0-----------0--------0-0-0-0-0-0-0-0-|
                   . . . . .                    . . . . . . . .

D|---------------------------------------------------------------|
A|---------------------------------------------------------------|
F|---3-2-------------------------------22------------------------|
C|---3-2--55-3-5-------8---7---5---7---22-00---------------------|
G|---1-0--55-3-5-------8---7---5---7---00-00---------------------|
C|--------55-3-5-0-0-0-8-0-7-0-5-0-7-0-------0-0-0-0-0-0-0-0-----|
                 . . .   .   .   .   .       . . . . . . . .

Outro
D|--------------------------------------------------------|
A|--------------------------------------------------------|
F|------------------------------22------------------------|
C|-55-3-5-------8---7---5---7---22-00---------------------|
G|-55-3-5-------8---7---5---7---00-00---------------------|
C|-55-3-5-0-0-0-8-0-7-0-5-0-7-0-------0-0-0-0-0-0-0-0-----|
          . . .   .   .   .   .       . . . . . . . .

D|--------------------------------------------------------|
A|--------------------------------------------------------|
F|------------------------------22------------------------|
C|-55-3-5-------8---7---5---7---22-00~--------------------|
G|-55-3-5-------8---7---5---7---00-00~--------------------|
C|-55-3-5-------8---7---5---7-----------------------------|

Outro Lead
D|-------------------------------------------------------|
A|-------------------------------------------------------|
F|-------------------------------------------------------|
C|-/15-15-15-14-14-14-10h12-9h10h12-9h10h12-9h10h12/14---|
G|-------------------------------------------------------|
C|-------------------------------------------------------|

D|----------------------------------12h14h15p14p12-|
A|-------------------------12h14h15----------------|
F|----------12h14h15p14p12-------------------------|
C|-12h14h15----------------------------------------|
G|-------------------------------------------------|
C|-------------------------------------------------|

D|--15b---15b-15b-13-15b-1515-----------------------------|
A|----------------------------1313------------------------|
F|--------------------------------------------------------|
C|--------------------------------------------------------|
G|--------------------------------------------------------|
C|--------------------------------------------------------|

Tap to rate this tab
# A B C D E F G H I J K L M N O P Q R S T U V W X Y Z