Song name
# A B C D E F G H I J K L M N O P Q R S T U V W X Y Z

Chimaira - Pure Hatred tab

Drop C tunung@ CGCFAD

INTRO

I just do a big pick slide and then 

|-------|
|-------|  Hold this not until the next part of the intro comes in
|-------|
|---1---|
|---1---|
|---1---|


Part 2

|---------------------|
|---------------------|
|---------------------|
|--1--4--5--2-2-2-----|
|--1--4--5--2~2-2-----|
|--1--4--5--2~2-2-----|x8


or

|---------------------------|
|---------------------------| tremolo pick the intro
|---------------------------| 
|---------------------------| 
|---------------------------|
|-1111-4444-5555-22222222---|


INTRO CHORUS

"I have told you..."
 "Things need to change, never listen ..." etc
|--------------------------------------|
|--------------------------------------|
|--------------------------------------|
|--1-------4-------5--------22-2-2-----| 2's, not 22's
|--1-------4-------5--------22~2-2-----|
|--1-------4-------5--------22~2-2-----|x4


VERSE 1
                             "..sick, nothing has changed"
|------------------------|    |------------------------|
|------------------------|    |------------------------|
|------------------------|    |------------------------|
|--1--4--5--2-222220-----|    |---------------2--------|
|--1--4--5--2~222220-----|    |---------------2--------|
|--1--4--5--2~222220-----|x4  |---4*/\/\/\/\--2--------|
PM            ......


PRECHORUS - "I, hate, everyone..." listen for the srum pattern here

|-----------------------------------------|  they are 1's, not 11's
|-----------------------------------------|
|-----------------------------------------|
|--1111111-1-1-1111--1111111----6---6------|
|--1111111-1-1-1111--1111111----4---4------|
|--1111111-1-1-1111--1111111--0---0--------|x3
PM ....... . . ....  .......  .   .

|------------------------------|  
|------------------------------|  
|------------------------------|
|--1111111-1-1-1-1--111111-1---|
|--1111111-1-1-1-1--111111-1---|
|--1111111-1-1-1-1--111111-1---|
PM ....... . . . .  ......


CHORUS

"This vicious cycle ..."
"still      remains     constant cluster ..."
|--------------------------------------|
|--------------------------------------|
|--------------------------------------|
|--1-------4-------5--------22-2-2-----| 
|--1-------4-------5--------22~2-2-----|
|--1-------4-------5--------22~2-2-----|x4


VERSE 2

                             "..sick, nothing has changed"
|------------------------|    |------------------------|
|------------------------|    |------------------------|
|------------------------|    |------------------------|
|--1--4--5--2-222220-----|    |---------------2--------|
|--1--4--5--2~222220-----|    |---------------2--------|
|--1--4--5--2~222220-----|x4  |---4*/\/\/\/\--2--------|
PM            ......


PRECHORUS

|-----------------------------------------|  
|-----------------------------------------|
|-----------------------------------------|
|--1111111-1-1-1-1--1111111----6---6------|
|--1111111-1-1-1-1--1111111----4---4------|
|--1111111-1-1-1-1--1111111--0---0--------|x3
PM ....... . . . .  .......  .   .


|-----------------------------------|  
|-----------------------------------|  
|-----------------------------------|
|--1111111-1-1-1-1------------------|
|--1111111-1-1-1-1------------------|
|--1111111-1-1-1-1--333-444-555-111-|
PM ....... . . . .  ... ... ... ...


BRIDGE - again, dodgy strum pattern, hard to translate into an accurate 
         tab but just listen lol
  

|-----------------------------------------|  
|-----------------------------------------|
|-----------------------------------------|
|--1111-1111-1-1-1-1--1-1111-1-1-1-1------|
|--1111-1111-1-1-1-1--1-1111-1-1-1-1------|
|--1111-1111-1-1-1-1--1-1111-1-1-1-1------|x4
PM .... .... . . . .  . .... . . . .

for the little gap just pick the harmonics on the 5th fret, botton two strings

then (and this is how i do it)

"you have to, pick and chose your fights..."

|-----------------------------------------------------------------|
|-----------------------------------------------------------------|
|-----------------------------------------------------------------|
|-----------------------------------------------------------------|
|-5-----5*~-------------000-000-----5-----5*------------3h5p3p0---|
|---0-6------0-6p0-5p0--000-000-------0-6-----0-6p0-5p0-3h5p3p0---|x4?
PM  . .      .          ... ...       . .     .


".....ALIVEE!!!....."

|---------------------|
|---------------------|
|---------------------|
|------------------5--|
|--555-555-555-555-5--|
|--555-555-555-555-5--|
PM ... ... ... ... .


CHORUS

"I have told you..."
"things need to change 
|--------------------------------------|
|--------------------------------------|
|--------------------------------------|
|--1-------4-------5--------22-2-2-----| 
|--1-------4-------5--------22~2-2-----|
|--1-------4-------5--------22~2-2-----|x4

|---------------------------|
|---------------------------| tremolo pick but keep the same
|---------------------------| timing
|---------------------------| 
|---------------------------|
|-1111-4444-5555-22222222---|x4


repeat PRECHORUS once more then end with this over and over with Flanger effect if you can

ENDING

|------------------------------------/-----------------------------------| 
|------------------------------------/-----------------------------------|
|------------------------------------/-----------------------------------|
|-0000-0000-0-0-0-0--0-0000-0-0-0-0--/--0000-0000-0-0-0-0--0-0000-1-1-1--|
|-0000-0000-0-0-0-0--0-0000-0-0-0-0--/--0000-0000-0-0-0-0--0-0000-1-1-1--|
|-0000-0000-0-0-0-0--0-0000-0-0-0-0--/--0000-0000-0-0-0-0--0-0000-1-1-1--|
PM.... .... . . . .  . .... . . . .     .... .... . . . .  . .... . . .

|------------------------------------/-----------------------------------| 
|------------------------------------/-----------------------------------|
|------------------------------------/-----------------------------------|
|-0000-0000-0-0-0-0--0-0000-0-0-0-0--/--3-3-3--4-4-4--5-5-5--1-1-///-----|
|-0000-0000-0-0-0-0--0-0000-0-0-0-0--/--3-3-3--4-4-4--5-5-5--1-1-///-----|
|-0000-0000-0-0-0-0--0-0000-0-0-0-0--/--3-3-3--4-4-4--5-5-5--1-1-///-----|
PM.... .... . . . .  . .... . . . .     . . .  . . .  . . .  . .

repeat to fade!!




Tap to rate this tab
# A B C D E F G H I J K L M N O P Q R S T U V W X Y Z