Song name
# A B C D E F G H I J K L M N O P Q R S T U V W X Y Z

Chimaira - On Broken Glass tab

Title: On Broken Glass
Artist: Chimaira
Album: The Infection


Legend
L - tied note
x - dead note
h - hammer on/pull off
b - bend
s - slide
~ - vibrato
g - ghost note
> - accentuated note
t - trill
M - palm mute
. - staccato
P - popping (bass)
S - slapping (bass)
+ - tapping
W - wide vibrato
< - fade in
w - whammy bar
= - tremolo picking
v - brush up
^ - brush down
V - pick stroke up
n - pick stroke down

                                            
D |----------------------------------------|
A |----------------------------------------|
F |----------------------------------------|
C |----------------------------------------|
G |--------------------------------8-------|
C |--7M-7M-7M----3M----0M----8M------------|

                                                                      
----------------------------------------|----------------------------|
----------------------------------------|----------------------------|
----------------------------------------|----------------------------|
----------------------------------------|----------------------------|
--------------------------------8-------|----------------------------|
--7M-7M-7M----3M----0M----8M------------|--7M-7M-7M----3M----0M------|

                                         
----------------------------------------|
----------------------------------------|
----------------------------------------|
----------------------------------------|
--------------------------------8-------|
--7M-7M-7M----3M----0M----8M------------|

                                                                      
----------------------------------------|----------------------------|
----------------------------------------|----------------------------|
----------------------------------------|----------------------------|
----------------------------------------|----------------------------|
--------------------------------8-------|----------------------------|
--7M-7M-7M----3M----0M----8M------------|--7M-7M-7M----3M----0M------|

                                         
----------------------------------------|
----------------------------------------|
----------------------------------------|
----------------------------------------|
--------------------------------8-------|
--7M-7M-7M----3M----0M----8M------------|

                                                                      
----------------------------------------|----------------------------|
----------------------------------------|----------------------------|
----------------------------------------|----------------------------|
----------------------------------------|----------------------------|
--------------------------------8-------|----------------------------|
--7M-7M-7M----3M----0M----8M------------|--7M-7M-7M----3M----0M------|

                                         
----------------------------------------|
----------------------------------------|
----------------------------------------|
----------------------------------------|
--------------------------------8-------|
--7M-7M-7M----3M----0M----8M------------|

                                                                      
----------------------------------------|----------------------------|
----------------------------------------|----------------------------|
----------------------------------------|----------------------------|
----------------------------------------|----------------------------|
--------------------------------8-------|----------------------------|
--7M-7M-7M----3M----0M----8M------------|--7M-7M-7M----3M----0M------|

                                                     
----------------------------------------------------|
----------------------------------------------------|
----------------------------------------------------|
----------------------------------------------------|
--------------------------------8-------------------|
--7M-7M-7M----3M----0M----8M----------0M----0M------|

                             
----------------------------|
----------------------------|
----------------------------|
--0-----------3-------------|
--0--2M-1M-0M-1--2M-1M-0M---|
-----2M-1M-0M----2M-1M-0M---|

                                                     
----------------------------------------------------|
----------------------------------------------------|
----------------------------------------------------|
----------------------------------------------------|
--------------------------------8-------------------|
--7M-7M-7M----3M----0M----8M----------0M----0M------|

                             
----------------------------|
----------------------------|
----------------------------|
--0-----------3-------------|
--0--2M-1M-0M-1--2M-1M-0M---|
-----2M-1M-0M----2M-1M-0M---|

                                                     
----------------------------------------------------|
----------------------------------------------------|
----------------------------------------------------|
----------------------------------------------------|
--------------------------------8-------------------|
--7M-7M-7M----3M----0M----8M----------0M----0M------|

                             
----------------------------|
----------------------------|
----------------------------|
----------------------------|
--0--2M-1M-0M-1--2M-1M-0M---|
-----2M-1M-0M----2M-1M-0M---|

                                                     
----------------------------------------------------|
----------------------------------------------------|
----------------------------------------------------|
----------------------------------------------------|
--------------------------------8-------------------|
--7M-7M-7M----3M----0M----8M----------0M----0M------|

                             
----------------------------|
----------------------------|
----------------------------|
----------------------------|
--0-----------1-------------|
-----2M-1M-0M----2M-1M-0M---|

                                                     
----------------------------------------------------|
----------------------------------------------------|
----------------------------------------------------|
----------------------------------------------------|
--------------------------------8-------------------|
--7M-7M-7M----3M----0M----8M----------0M----0M------|

                             
----------------------------|
----------------------------|
----------------------------|
----------------------------|
--0-----------1-------------|
-----2M-1M-0M----2M-1M-0M---|

                                                     
----------------------------------------------------|
----------------------------------------------------|
----------------------------------------------------|
----------------------------------------------------|
--------------------------------8-------------------|
--7M-7M-7M----3M----0M----8M----------0M----0M------|

                                                     
----------------------------------------------------|
----------------------------------------------------|
----------------------------------------------------|
----------------------------------------------------|
--3-----------------------4-------------------------|
--------4M----3M----0M----------5M----7M-7M-7M-7M---|

                                                     
----------------------------------------------------|
----------------------------------------------------|
----------------------------------------------------|
----------------------------------------------------|
--------------------------------8-------------------|
--7M-7M-7M----3M----0M----8M----------0M----0M------|

                             
----------------------------|
----------------------------|
----------------------------|
----------------------------|
--0-----------1-------------|
-----2M-1M-0M----2M-1M-0M---|

                                                     
----------------------------------------------------|
----------------------------------------------------|
----------------------------------------------------|
----------------------------------------------------|
--3M-3M-3M----------------4-------------------------|
--------------6M----3M----0-------------------------|

                                                     
----------------------------------------------------|
----------------------------------------------------|
----------------------------------------------------|
----------------------------------------------------|
--4h----5h----4h----3-------------------------------|
--------------------------6h----5-----7M-7M-7M-7M---|

                                                     
----------------------------------------------------|
----------------------------------------------------|
----------------------------------------------------|
----------------------------------------------------|
--------------------------------8-------------------|
--7M-7M-7M----3M----0M----8M----------0M----0M------|

                             
----------------------------|
----------------------------|
----------------------------|
----------------------------|
--0-----------1-------------|
-----2M-1M-0M----2M-1M-0M---|

                                                     
----------------------------------------------------|
----------------------------------------------------|
----------------------------------------------------|
----------------------------------------------------|
--------------------------------8-------------------|
--7M-7M-7M----3M----0M----8M----------0M----0M------|

                                                     
----------------------------------------------------|
----------------------------------------------------|
----------------------------------------------------|
----------------------------------------------------|
--3-----------------------4-------------------------|
--------4M----3M----0M----------5M----7M-7M-7M-7M---|

                                                     
----------------------------------------------------|
----------------------------------------------------|
----------------------------------------------------|
----------------------------------------------------|
--------------------------------8-------------------|
--7M-7M-7M----3M----0M----8M----------0M----0M------|

                             
----------------------------|
----------------------------|
----------------------------|
----------------------------|
--0-----------1-------------|
-----2M-1M-0M----2M-1M-0M---|

                                                     
----------------------------------------------------|
----------------------------------------------------|
----------------------------------------------------|
----------------------------------------------------|
--3M-3M-3M----------------4-------------------------|
--------------6M----3M----0-------------------------|

                                                          
----------------------------|--------------10------------|
----------------------------|--------------10------------|
----------------------------|--------------7-------------|
----------------------------|--0-----------0-------------|
--4h-5h-4h-3----------------|--0-----------------0M-0M---|
--------------7h-5h-4h-3----|--0-----------------0M-0M---|

                                                          
----------------------------|----------------------------|
----------------------------|----------------------------|
----------------------------|----------------------------|
----------------------------|----------------------------|
--3--4-----4--3-------------|--1-----------0-------------|
--3--4--0M-4--3--0M-0M-0M---|--1-----------0-----0M-0M---|

                                                     
----------------------------------------------------|
----------------------------------------------------|
----------------------------------------------------|
----------------------------------------------------|
--------------------------------8-------------------|
--7M-7M-7M----3M----0M----8M----------0M----0M------|

                                                          
--------------10------------|----------------------------|
--------------10------------|----------------------------|
--------------7-------------|----------------------------|
--0-----------0-------------|----------------------------|
--0-----------------0M-0M---|--3--4-----4--3-------------|
--0-----------------0M-0M---|--3--4--0M-4--3--0M-0M-0M---|

                             
----------------------------|
----------------------------|
----------------------------|
----------------------------|
--1-----------3-------------|
--1-----------3-----0M-0M---|

                                                     
----------------------------------------------------|
----------------------------------------------------|
----------------------------------------------------|
----------------------------------------------------|
--------------------------------8-----8-------------|
--7M-7M-7M----3M----0M----8M------------------------|

                                                          
--------------10------------|----------------------------|
--------------10------------|----------------------------|
--------------7-------------|----------------------------|
--0-----------0-------------|----------------------------|
--0-----------------0M-0M---|--3--4-----4--3-------------|
--0-----------------0M-0M---|--3--4--0M-4--3--0M-0M-0M---|

                             
----------------------------|
----------------------------|
----------------------------|
----------------------------|
--1-----------0-------------|
--1-----------0-----0M-0M---|

                                                     
----------------------------------------------------|
----------------------------------------------------|
----------------------------------------------------|
----------------------------------------------------|
--------------------------------8-------------------|
--7M-7M-7M----3M----0M----8M----------0M----0M------|

                                                          
--------------10------------|----------------------------|
--------------10------------|----------------------------|
--------------7-------------|----------------------------|
--0-----------0-------------|----------------------------|
--0-----------------0M-0M---|--3--4-----4--3-------------|
--0-----------------0M-0M---|--3--4--0M-4--3--0M-0M-0M---|

                             
----------------------------|
----------------------------|
----------------------------|
----------------------------|
--1-----------3-------------|
--1-----------3-----0M-0M---|

                                                     
----------------------------------------------------|
----------------------------------------------------|
----------------------------------------------------|
----------------------------------------------------|
--------------------------------8-----8-------------|
--7M-7M-7M----3M----0M----8M------------------------|

                             
----------------------------|
----------------------------|
----------------------------|
----------------------------|
--3M------------------------|
-----4M-3M-0M---------------|

                                                     
----------------------------------------------------|
----------------------------------------------------|
----------------------------------------------------|
----------------------------------------------------|
--------------------------------8-------------------|
--7M-7M-7M----3M----0M----8M----------0M----0M------|

                             
----------------------------|
----------------------------|
----------------------------|
----------------------------|
--0-----------1-------------|
-----2M-1M-0M----2M-1M-0M---|

                                                     
----------------------------------------------------|
----------------------------------------------------|
----------------------------------------------------|
----------------------------------------------------|
--------------------------------8-------------------|
--7M-7M-7M----3M----0M----8M----------0M----0M------|

                                                     
----------------------------------------------------|
----------------------------------------------------|
----------------------------------------------------|
----------------------------------------------------|
--3-----------------------4-------------------------|
--------4M----3M----0M----------5M----7M-7M-7M-7M---|

                                                     
----------------------------------------------------|
----------------------------------------------------|
----------------------------------------------------|
----------------------------------------------------|
--------------------------------8-------------------|
--7M-7M-7M----3M----0M----8M----------0M----0M------|

                             
----------------------------|
----------------------------|
----------------------------|
----------------------------|
--0-----------1-------------|
-----2M-1M-0M----2M-1M-0M---|

                                                     
----------------------------------------------------|
----------------------------------------------------|
----------------------------------------------------|
----------------------------------------------------|
--3M-3M-3M----------------4-------------------------|
--------------6M----3M----0-------------------------|

                                                     
----------------------------------------------------|
----------------------------------------------------|
----------------------------------------------------|
----------------------------------------------------|
--4h----5h----4h----3-------------------------------|
--------------------------6h----5-----7M-7M-7M-7M---|

                                                     
----------------------------------------------------|
----------------------------------------------------|
----------------------------------------------------|
----------------------------------------------------|
--------------------------------8-------------------|
--7M-7M-7M----3M----0M----8M----------0M----0M------|

                             
----------------------------|
----------------------------|
----------------------------|
----------------------------|
--0-----------1-------------|
-----2M-1M-0M----2M-1M-0M---|

                                                     
----------------------------------------------------|
----------------------------------------------------|
----------------------------------------------------|
----------------------------------------------------|
--------------------------------8-------------------|
--7M-7M-7M----3M----0M----8M----------0M----0M------|

                                                     
----------------------------------------------------|
----------------------------------------------------|
----------------------------------------------------|
----------------------------------------------------|
--3-----------------------4-------------------------|
--------4M----3M----0M----------5M----7M-7M-7M-7M---|

                                                     
----------------------------------------------------|
----------------------------------------------------|
----------------------------------------------------|
----------------------------------------------------|
--------------------------------8-------------------|
--7M-7M-7M----3M----0M----8M----------0M----0M------|

                             
----------------------------|
----------------------------|
----------------------------|
----------------------------|
--0-----------1-------------|
-----2M-1M-0M----2M-1M-0M---|

                                                     
----------------------------------------------------|
----------------------------------------------------|
----------------------------------------------------|
----------------------------------------------------|
--3M-3M-3M----------------4-------------------------|
--------------6M----3M----0-------------------------|

                                                     
----------------------------------------------------|
----------------------------------------------------|
----------------------------------------------------|
----------------------------------------------------|
--4h----5h----4h----3-------------------------------|
--------------------------6h----5-----7M-7M-7M-7M---|

                                                     
----------------------------------------------------|
----------------------------------------------------|
----------------------------------------------------|
----------------------------------------------------|
--------------------------------8-------------------|
--7M-7M-7M----3M----0M----8M----------0M----0M------|

                             
----------------------------|
----------------------------|
----------------------------|
----------------------------|
--0-----------1-------------|
-----2M-1M-0M----2M-1M-0M---|

                                                     
----------------------------------------------------|
----------------------------------------------------|
----------------------------------------------------|
----------------------------------------------------|
--------------------------------8-------------------|
--7M-7M-7M----3M----0M----8M----------0M----0M------|

                                                     
----------------------------------------------------|
----------------------------------------------------|
----------------------------------------------------|
----------------------------------------------------|
--3-----------------------4-------------------------|
--------4M----3M----0M----------5M----7M-7M-7M-7M---|

                                                     
----------------------------------------------------|
----------------------------------------------------|
----------------------------------------------------|
----------------------------------------------------|
--------------------------------8-------------------|
--7M-7M-7M----3M----0M----8M----------0M----0M------|

                             
----------------------------|
----------------------------|
----------------------------|
----------------------------|
--0-----------1-------------|
-----2M-1M-0M----2M-1M-0M---|

                                                     
----------------------------------------------------|
----------------------------------------------------|
----------------------------------------------------|
----------------------------------------------------|
--3M-3M-3M----------------4-------------------------|
--------------6M----3M----0-------------------------|

                                                          
----------------------------|--------------10------------|
----------------------------|--------------10------------|
----------------------------|--------------7-------------|
----------------------------|--0-----------0-------------|
--4h-5h-4h-3----------------|--0-----------------0M-0M---|
--------------7h-5h-4h-3----|--0-----------------0M-0M---|

                                                          
----------------------------|----------------------------|
----------------------------|----------------------------|
----------------------------|----------------------------|
----------------------------|----------------------------|
--3--4-----4--3-------------|--1-----------0-------------|
--3--4--0M-4--3--0M-0M-0M---|--1-----------0-----0M-0M---|

                                                     
----------------------------------------------------|
----------------------------------------------------|
----------------------------------------------------|
----------------------------------------------------|
--------------------------------8-------------------|
--7M-7M-7M----3M----0M----8M----------0M----0M------|

                                                          
--------------10------------|----------------------------|
--------------10------------|----------------------------|
--------------7-------------|----------------------------|
--0-----------0-------------|----------------------------|
--0-----------------0M-0M---|--3--4-----4--3-------------|
--0-----------------0M-0M---|--3--4--0M-4--3--0M-0M-0M---|

                             
----------------------------|
----------------------------|
----------------------------|
----------------------------|
--1-----------3-------------|
--1-----------3-----0M-0M---|

                                                     
----------------------------------------------------|
----------------------------------------------------|
----------------------------------------------------|
----------------------------------------------------|
--------------------------------8-----8-------------|
--7M-7M-7M----3M----0M----8M------------------------|

                                                          
--------------10------------|----------------------------|
--------------10------------|----------------------------|
--------------7-------------|----------------------------|
--0-----------0-------------|----------------------------|
--0-----------------0M-0M---|--3--4-----4--3-------------|
--0-----------------0M-0M---|--3--4--0M-4--3--0M-0M-0M---|

                             
----------------------------|
----------------------------|
----------------------------|
----------------------------|
--1-----------0-------------|
--1-----------0-----0M-0M---|

                                                     
----------------------------------------------------|
----------------------------------------------------|
----------------------------------------------------|
----------------------------------------------------|
--------------------------------8-------------------|
--7M-7M-7M----3M----0M----8M----------0M----0M------|

                                                          
--------------10------------|----------------------------|
--------------10------------|----------------------------|
--------------7-------------|----------------------------|
--0-----------0-------------|----------------------------|
--0-----------------0M-0M---|--3--4-----4--3-------------|
--0-----------------0M-0M---|--3--4--0M-4--3--0M-0M-0M---|

                             
----------------------------|
----------------------------|
----------------------------|
----------------------------|
--1-----------3-------------|
--1-----------3-----0M-0M---|

                                                                             
----------------------------------------------------|-------|-------|-------|
----------------------------------------------------|-------|-------|-------|
----------------------------------------------------|-------|-------|-------|
----------------------------------------------------|-------|-------|-------|
--------------------------------8-----8-------------|--4----|--4----|--4----|
--7M-7M-7M----3M----0M----8M------------------------|--0----|--0----|--0----|

                                                                       w     
----------------------------------------------------|-------|-------|-------|
----------------------------------------------------|-------|-------|-------|
----------------------------------------------------|-------|-------|-------|
----------------------------------------------------|-------|-------|-------|
--------------------------------8-----8-------------|--4----|--4----|--4----|
--7M-7M-7M----3M----0M----8M------------------------|--0----|--0----|--0----|

                                                           
-------|----------------|----------------|----------------|
-------|----------------|----------------|----------------|
-------|----------------|----------------|----------------|
-------|--0--2----------|--6--3----------|--0--2----------|
--4----|--0--2----------|--6--3----------|--0--2----------|
--0----|--0--2----------|--6--3----------|--0--2----------|

                                         
----------------------------------------|
----------------------------------------|
----------------------------------------|
--6--------3--------6--3--6--4----------|
--6--------3--------6--3--6--4----------|
--6--------3--------6--3--6--4----------|

                                         
----------------------------------------|
----------------------------------------|
----------------------------------------|
--0--------2----------------------------|
--0--------2--------2M-3M-2M-3M-2M-3M---|
--0--------2--------2M-3M-2M-3M-2M-3M---|

                                         
----------------------------------------|
----------------------------------------|
----------------------------------------|
--6--------3--------6M-3M-6M-4----------|
--6--------3--------6M-3M-6M-4----------|
--6--------3--------6M-3M-6M-4----------|

                                         
----------------------------------------|
----------------------------------------|
----------------------------------------|
--0--------2----------------------------|
--0--------2--------2M-3M-2M-3M-2M-3M---|
--0--------2--------2M-3M-2M-3M-2M-3M---|

                                         
----------------------------------------|
----------------------------------------|
----------------------------------------|
--6--------3--------6M-3M-6M-4----------|
--6--------3--------6M-3M-6M-4----------|
--6--------3--------6M-3M-6M-4----------|

                                         
----------------------------------------|
----------------------------------------|
----------------------------------------|
--0--------2----------------------------|
--0--------2--------2M-3M-2M-3M-2M-3M---|
--0--------2--------2M-3M-2M-3M-2M-3M---|

                                         
----------------------------------------|
----------------------------------------|
----------------------------------------|
--6--------3--------6M-3M-6M-4----------|
--6--------3--------6M-3M-6M-4----------|
--6--------3--------6M-3M-6M-4----------|

                                         
----------------------------------------|
----------------------------------------|
----------------------------------------|
--0--------2----------------------------|
--0--------2--------2M-3M-2M-3M-2M-3M---|
--0--------2--------2M-3M-2M-3M-2M-3M---|

                             w           
----------------------------------------|
----------------------------------------|
----------------------------------------|
--6--------3--------6M-3M-6M-0----------|
--6--------3--------6M-3M-6M-0----------|
--6--------3--------6M-3M-6M-0----------|

                                         
----------------------------------------|
----------------------------------------|
----------------------------------------|
--0--------2----------------------------|
--0--------2--------2M-3M-2M-3M-2M-3M---|
--0--------2--------2M-3M-2M-3M-2M-3M---|

                                         
----------------------------------------|
----------------------------------------|
----------------------------------------|
--6--------3--------6M-3M-6M-4----------|
--6--------3--------6M-3M-6M-4----------|
--6--------3--------6M-3M-6M-4----------|

                                         
----------------------------------------|
----------------------------------------|
----------------------------------------|
--0--------2----------------------------|
--0--------2--------2M-3M-2M-3M-2M-3M---|
--0--------2--------2M-3M-2M-3M-2M-3M---|

                                         
----------------------------------------|
----------------------------------------|
----------------------------------------|
--6--------3----------------------------|
--6--------3--------7--7--7--7--7--7----|
--6--------3----------------------------|

                                         
----------------------------------------|
----------------------------------------|
----------------------------------------|
--0--------2----------------------------|
--0--------2--------2M-3M-2M-3M-2M-3M---|
--0--------2--------2M-3M-2M-3M-2M-3M---|

                                         
----------------------------------------|
----------------------------------------|
----------------------------------------|
--6--------3--------6M-3M-6M-4----------|
--6--------3--------6M-3M-6M-4----------|
--6--------3--------6M-3M-6M-4----------|

                                         
----------------------------------------|
----------------------------------------|
----------------------------------------|
--0--------2----------------------------|
--0--------2--------2M-3M-2M-3M-2M-3M---|
--0--------2--------2M-3M-2M-3M-2M-3M---|

                                                                         
----------------------------------------|-------|-------|-------|-------|
----------------------------------------|--12---|--12---|--12---|--12---|
----------------------------------------|--10---|--10---|--10---|--10---|
--6--------3--------6M-3M-6M-4----------|--0----|--0----|--0----|--0----|
--6--------3--------6M-3M-6M-4----------|--0----|--0----|--0----|--0----|
--6--------3--------6M-3M-6M-4----------|--0----|--0----|--0----|--0----|

                                                             
-------|-------|-------|-------|----------------------------|
--12---|--12---|--12---|--12---|----------------------------|
--10---|--10---|--10---|--10---|----------------------------|
--0----|--0----|--0----|--0----|--------------------7M-6M---|
--0----|--0----|--0----|--0----|-----------6M-5M-4M---------|
--0----|--0----|--0----|--0----|--5M-4M-3M------------------|

                                                          
----------------------------|----------------------------|
----------------------------|----------------------------|
----------------------------|----------------------------|
--5M------------------------|----------------------------|
-----7M-6M-5M----------8M---|--7M-6M----------9M-8M-7M---|
--------------7M-6M-5M------|--------8M-7M-6M------------|

                                                          
----------------------------|----------------------------|
----------------------------|----------------------------|
----------------------------|----------------------------|
----------------------------|--------------------7M-6M---|
-----------10M9M-8M---------|-----------6M-5M-4M---------|
--9M-8M-7M----------10M9M---|--5M-4M-3M------------------|

                                                          
----------------------------|----------------------------|
----------------------------|----------------------------|
----------------------------|----------------------------|
--5M------------------------|----------------------------|
-----7M-6M-5M----------8M---|--7M-6M----------9M-8M-7M---|
--------------7M-6M-5M------|--------8M-7M-6M------------|

                                                          
----------------------------|----------------------------|
----------------------------|----------------------------|
----------------------------|----------------------------|
----------------------------|--------------------7M-6M---|
-----------10M9M-8M---------|-----------6M-5M-4M---------|
--9M-8M-7M----------10M9M---|--5M-4M-3M------------------|

                                                          
----------------------------|----------------------------|
----------------------------|----------------------------|
----------------------------|----------------------------|
--5M------------------------|----------------------------|
-----7M-6M-5M----------8M---|--7M-6M----------9M-8M-7M---|
--------------7M-6M-5M------|--------8M-7M-6M------------|

                                                          
----------------------------|----------------------------|
----------------------------|----------------------------|
----------------------------|----------------------------|
----------------------------|--------------------7M-6M---|
-----------10M9M-8M---------|-----------6M-5M-4M---------|
--9M-8M-7M----------10M9M---|--5M-4M-3M------------------|

                                                          
----------------------------|----------------------------|
----------------------------|----------------------------|
----------------------------|----------------------------|
--5M------------------------|----------------------------|
-----7M-6M-5M----------8M---|--7M-6M----------9M-8M-7M---|
--------------7M-6M-5M------|--------8M-7M-6M------------|

                                          w                  w       w     
----------------------------|-------|----------|-------|----------|-------|
----------------------------|-------|----------|-------|----------|-------|
----------------------------|-------|----------|-------|----------|-------|
----------------------------|-------|----------|-------|----------|-------|
-----------10M9M-8M---------|-------|----------|-------|----------|-------|
--9M-8M-7M----------10M9M---|--11---|--11~11---|--11---|--11~11---|--11---|

  w       w  w
-------|----------|----------------------------|--------------10------------|
-------|----------|----------------------------|--------------10------------|
-------|----------|----------------------------|--------------7-------------|
-------|----------|----------------------------|--0-----------0-------------|
-------|----------|--4--5--4--3----------------|--0-----------------0M-0M---|
--11---|--11-11---|--------------6--5--4--3----|--0-----------------0M-0M---|


----------------------------|----------------------------|
----------------------------|----------------------------|
----------------------------|----------------------------|
----------------------------|----------------------------|
--3--4-----4--3-------------|--1-----------0-------------|
--3--4--0M-4--3--0M-0M-0M---|--1-----------0-----0M-0M---|


----------------------------------------------------|
----------------------------------------------------|
----------------------------------------------------|
----------------------------------------------------|
--------------------------------8-------------------|
--7M-7M-7M----3M----0M----8M----------0M----0M------|


--------------10------------|----------------------------|----------------|
--------------10------------|----------------------------|----------------|
--------------7-------------|----------------------------|----------------|
--0-----------0-------------|----------------------------|----------------|
--0-----------------0M-0M---|--3--4-----4--3-------------|--1-----3-------|
--0-----------------0M-0M---|--3--4--0M-4--3--0M-0M-0M---|--1-----3-------|


----------|--------------10------------|----------------------------|
----------|--------------10------------|----------------------------|
----------|--------------7-------------|----------------------------|
----------|--0-----------0-------------|----------------------------|
----------|--0-----------------0M-0M---|--3--4-----4--3-------------|
-----12s--|--0-----------------0M-0M---|--3--4--0M-4--3--0M-0M-0M---|


----------------------------|
----------------------------|
----------------------------|
----------------------------|
--1-----------0-------------|
--1-----------0-----0M-0M---|


----------------------------------------------------|
----------------------------------------------------|
----------------------------------------------------|
----------------------------------------------------|
--------------------------------8-------------------|
--7M-7M-7M----3M----0M----8M----------0M----0M------|


--------------10------------|----------------------------|
--------------10------------|----------------------------|
--------------7-------------|----------------------------|
--0-----------0-------------|----------------------------|
--0-----------------0M-0M---|--3--4-----4--3-------------|
--0-----------------0M-0M---|--3--4--0M-4--3--0M-0M-0M---|


----------------------------|
----------------------------|
----------------------------|
----------------------------|
--1-----------3-------------|
--1-----------3-----0M-0M---|


----------------------------------------------------|
----------------------------------------------------|
----------------------------------------------------|
----------------------------------------------------|
--------------------------------8-----8-----8-------|
--7M-7M-7M----3M----0M----8M----------8-----7-------|


----------------------------------------------------|
----------------------------------------------------|
----------------------------------------------------|
----------------------------------------------------|
--------------------------------8-----8-----8-------|
--7M-7M-7M----3M----0M----8M----------8-----7-------|


----------------------------------------------------|
----------------------------------------------------|
----------------------------------------------------|
----------------------------------------------------|
--------------------------------8-----8-----8-------|
--7M-7M-7M----3M----0M----8M----------8-----7-------|


----------------------------------------------------|
----------------------------------------------------|
----------------------------------------------------|
----------------------------------------------------|
--------------------------------8-----8-----8-------|
--7M-7M-7M----3M----0M----8M----------8-----7-------|


----------------------------||
----------------------------||
----------------------------||
----------------------------||
--0-------------------------||
--0-------------------------||
Tap to rate this tab
# A B C D E F G H I J K L M N O P Q R S T U V W X Y Z