Song name
# A B C D E F G H I J K L M N O P Q R S T U V W X Y Z

Chimaira - Baptizing The Dead tab

OK PEOPLE,THIS IS A NEW BAND FROM RIPLEY,TENNESSEE.THEY KICK ASS,
NOT MANY PEOPLE KNOW ABOUT THEM YET SO GIVE THEM SOME GODDAMN LOVE.....

INTRO.
-------------------------------------------------------------------------
-------------------------------------------------------------------------
-------------------------------------------------------------------------
-------------------------------------------------------------------------
00-0-00----00-0-00-1-----------------------------------------------------
00-0-00----00-0-00-1-----------------------------------------------------
REPEAT- 5 TIMES


-------------------------------------------------------------------------
-------------------------------------------------------------------------
-------------------------------------------------------------------------
-------------------------------------------------------------------------
--003204305407-----------------------------------------------------------
--003204305407-----------------------------------------------------------
repeat- 6 times

                                  
--00-0-00--00-0-00-1--------0032--0043--0054--00540032--------------------
--00-0-00--00-0-00-1--------0032--0043--0054--00540032--------------------
--------------------------------------------------------------------------
--------------------------------------------------------------------------
--------------------------------------------------------------------------
--------------------------------------------------------------------------
                             repeat-2 times


tabbed by:jason


have fun with this tune,represent severed 4 life!
Tap to rate this tab
 
# A B C D E F G H I J K L M N O P Q R S T U V W X Y Z