Song name
# A B C D E F G H I J K L M N O P Q R S T U V W X Y Z

Chimaira - This Present Darkness tab

Seven string in Drop A

Part one
|-----------------|-----------------|-----------------|-----------------|
|-----------------|-----------------|-----------------|-----------------|
|-----------------|-----------------|-----------------|-----------------|
|-----------------|-----------------|-----------------|-----------------|
|-----------------|-----------------|-----------------|-----------------|
|-433-3-433-3-433-|-433-3-433-3-1---|-433-3-433-3-433-|-433-3-331--3--4-|
|-433-3-433-3-433-|-433-3-433-3-1---|-433-3-433-3-433-|-433-3-331--3--4-|
  --- - --- - ---   --- - --- -       --- - --- - ---   --- - --

Part two
|-----------------|-----------------|-----------------|-------------------------|
|-----------------|-----------------|-----------------|-------------------------|
|-----------------|-----------------|-----------------|-------------------------|
|-----------------|-----------------|-----------------|-------------------------|
|-----------------|-----------------|-----------------|-------------------------|
|-----------------|-----------------|-----------------|---------5h8p5h8-4h7p4h7-|
|-000-000---0-000-|-000-000---0-000-|-000-000---0-000-|-000-000-----------------|
  --- ---   - ---   --- ---   - ---   --- ---   - ---   --- ---
Part three
|--------------------------------|---------------------------------|
|--------------------------------|---------------------------------|
|--------------------------------|---------------------------------|
|--------------------------------|---------------------------------|
|--------------------------------|---------------------------------|
|-3---3-----------1/3-3---4\3-3--|-3---3-----------3---3---4/6-6-6-|
|-3---3---000-000-1/3-3---4\3-3--|-3---3---000-000-3---3---4/6-6-6-|
          --- ---                          --- ---

The second time this riff gets played there's a slight variation so I'm just going 
to type out the whole thing.
|-----------------|-----------------|-----------------|-------------------------|
|-----------------|-----------------|-----------------|-------------------------|
|-----------------|-----------------|-----------------|-------------------------|
|-----------------|-----------------|-----------------|-------------------------|
|-----------------|-----------------|-----------------|-------------------------|
|-----------------|-----------------|-----------------|---------5h8p5h8-4h7p4h7-|
|-000-000---0-000-|-000-000---0-000-|-000-000---0-000-|-000-000-----------------|
  --- ---   - ---   --- ---   - ---   --- ---   - ---   --- ---

|-----------------|-----------------|-----------------|-------------------------|
|-----------------|-----------------|-----------------|-------------------------|
|-----------------|-----------------|-----------------|-------------------------|
|-----------------|-----------------|-----------------|-------------------------|
|-----------------|-----------------|-----------------|-------------------------|
|-----------------|-----------------|-----------------|---------5h8p5h8-4h7p4h7-|
|-000-0-000-000-0-|-000-000---0-000-|-000-000---0-000-|-000-000-----------------|
  --- - --- --- -   --- ---   - ---   --- ---   - ---   --- ---
\_______ ________/
        V
This is the bar that's
slightly different


Part four
|-----------------|-----------------|-----------------|-------------------------|
|-----------------|-----------------|-----------------|-------------------------|
|-------11--------|-------11--------|-------11--------|-------------------------|
|-----------------|-----------------|-----------------|-------------------------|
|-------8---------|-------8---------|-------8---------|-------8-----------------|
|-----------------|-----------------|-----------------|---------5h8p5h8-4h7p4h7-|
|-000-0---0-0-000-|-000-0---0-0-000-|-000-0---0-0-000-|-000-0-------------------|
  --- -   - - ---   --- -   - - ---   --- -   - - ---   --- -

Ring out...
|------------------------------------------------------------------|
|------------------------------------------------------------------|
|------------------------------------------------------------------|
|------------------------------------------------------------------|
|-0----------------------------------------------------------------|
|-0----------------------------------------------------------------|
|-0----------------------------------------------------------------|

|---------------------------------|--------------------------------|
|---------------------------------|--------------------------------|
|---------------------------------|--------------------------------|
|---------------------------------|-7------------------------------|
|-0-------------------------------|-6------------------------------|
|-0-------------------------------|-5------------------------------|
|-0-------------------------------|--------------------------------|

Breakdown
|-------------------------|
|-------------------------|
|-------------------------|
|-------------------------|
|-0--1--0-----5--6--5-----|
|-0--1--0-----5--6--5-----|
|-0--1--0-----5--6--5-----|
Tap to rate this tab
# A B C D E F G H I J K L M N O P Q R S T U V W X Y Z