Song name
# A B C D E F G H I J K L M N O P Q R S T U V W X Y Z

Chimaira - Down Again tab

Chimaira - Down Again
Submitted By: Anemic
EMail: weca_wbeck@hotmail.com
Album- The Impossibility Of Reason
Tabber- Markus Westbeck
Tuning - B F# B A G# C# 



.  - palm mute                  ph    - pinched harmonic
/  - slide up to                ah    - artificial harmonic
\  - slide down to              th    - tap harmonic
~  - vibrato                    hr    - natural harmonic
h  - hammer on                  b     - bend
p  - pull off                      Suffixes for bend
t  - tap with finger                    f - full bend    h - half bend
"  - tremolo picking                    r - release      t - tap bend
X  - percussion mute                    p - pick when bent
>  - accented note                 Prefixes
() - ghost note, sustained note         p - pre-bend     w - use bar
*  - see comment                        d - don't pick start of bend


INTRO

First Guitar, can't really hear the second =(
|------------------------------------------------------------------------|
|------------------------------------------------------------------------|
|------------------------------------------------------------------------|
|-/7-6-7--hp9---/9-7-hp11--9-11-11-11--7-9-9-9--7--11--------------------|
|------------------------------------------------------------------------|
|------------------------------------------------------------------------|

Chorus

|------------------------------------------------------------------------|
|------------------------------------------------------------------------|
|------------------------------------------------------------------------|
|-4--2--5--4--7-55--22-4-22-4-5-4-2--------------------------------------|
|-4--2--5--4--7-55--22-4-22-4-5-4-2--------------------------------------|
|-4--2--5--4--7-55--22-4-22-4-5-4-2--------------------------------------|
		    ..	 ..


VERSE					     BRIDGE TO CHORUS

|-------------------------------------------|----------------------------|
|-------------------------------------------|----------------------------|
|------------------------------------11"----|----------------------------|
|-4--4444444444444---5"---11"---4"----------|-2--------------------------|
|-4--4444444444444--------------------------|-2----\---------------------|
|-4--4444444444444--------------------------|-2----\---------------------|
     .............			    Scrape the strings with 
					    the pick, listen to the song. 


SOLO RYTHM

|------------------|
|------------------|
|------------------|
|-4---7---2---4----|
|-4---7---2---4----|
|-4---7---2---4----|
Tap to rate this tab
 
# A B C D E F G H I J K L M N O P Q R S T U V W X Y Z