Song name
# A B C D E F G H I J K L M N O P Q R S T U V W X Y Z

Chimaira - Rizzo tab

Chimaira - Rizzo
Submitted By: Stand Alone (projectwyze13@hotmail.com)


Verse/Intro

E|----------------------------------------------------
B|----------------------------------------------------
G|----------------------------------------------------
D|----------------------------------------------------
A|2----2----2--2----2----2--2----2----2--2----2----2--
E|0----0----0--0----0----0--0----0----0--0----0----0--
    

Chorus "When you are this way..."

E|----------------------------------------
B|----------------------------------------
G|----------------------------------------
D|----------------------------------------
A|7----6----5----0000-7----6----5----0000-
E|5----4----3----0000-5----4----3----0000-
                  xxx                 xxx


Post chorus

E|------------------------------------------------------------------
B|------------------------------------------------------------------
G|------------------------------------------------------------------
D|------------------------------------------------------------------
A|--------11----11---------------11-------8-------11-------8--------
E|0---0------10----10-0---0---10-------10------10-------10-----9----


Interlude


E|---------------------------------------------
B|---------------------------------------------
G|---------------------------------------------
D|---------------------------------------------
A|-----11-------11---000-11--------11------000-
E|10--------10-------000------10-------9---000-
                     xxx                   xxx

Song structure is something like this:
Intro/Verse
Chorus
Post chorus
Intro/Verse
Chorus
Post chorus
Interlude
Intro/Verse
Chorus
Tap to rate this tab
# A B C D E F G H I J K L M N O P Q R S T U V W X Y Z