Song name
# A B C D E F G H I J K L M N O P Q R S T U V W X Y Z

Chimaira - Forced Life tab

Band: Chimaira
Title: Forced Life
Tabber: Sqweeky

||--------------------------------------------------------||
||--------------------------------------------------------||
||--------------------------------------------------------||
||--------------------------------------------------------||   the drums are what make it sound different
||--------------------------------------------------------||
||----0-0-0----0-0-0--------------------------------------||
||----0-0-0----0-0-0--------------------------------------||


||--------------------------------------------------------||
||--------------------------------------------------------||
||--------------------------------------------------------||
||--------------------------------------------------------||
||----------------------0-0-0-6-5-------------------------||
||--------------------------------------------------------||
||--0-0-0---0-0-0-----------------------------------------||


||--------------------------------------------------------||
||--------------------------------------------------------||
||--------------------------------------------------------||
||--------------------------------------------------------||
||-----6-6-6-0-0-0----------------------------------------||
||--------------------------------------------------------||
||------------------------7-7-4---7-7-4-------------------||


||--------------------------------------------------------||
||--------------------------------------------------------||
||--------------------------------------------------------||
||--------------------------------------------------------||
||--------------------------------------------------------||
||---------------0-0-0-0---0-0-0---0-0-0------------------||
||---1--4--1-----0-0-0-0---0-0-0---0-0-0------------------||

||--------------------------------------------------------||
||--------------------------------------------------------||
||--------------------------------------------------------||
||--------------------------------------------------------||
||-----------------------------0--------------------------||
||-----------------------------0--------------------------||
||---4-4-4----1-1-1---------0-----------------------------||


||--------------------------------------------------------||
||--------------------------------------------------------||
||--------------------------------------------------------||
||--------------------------------------------------------||
||--0-----------------4-----------------------------------||
||--0-----------------4-----------------------------------||
||--0-----------------4-------4/7-----7-------------------||


||--------------------------------------------------------||
||---5-5-5-5-----6-6-6-6----------------------------------||
||--------------------------------------------------------||
||---2-2-2-2-----3-3-3-3----------------------------------||
||--------------------------------------------------------||
||--------------------------------------------------------||
||--------------------------------------------------------||

interlude

||--------------------------------------------------------||
||--------------------------------------------------------||
||--------------------------------------------------------||
||--------------------------------------------------------||
||--------------------------------------------------------||
||--------------------------------------------------------||
||-xxxxxxxxxxxxxxxxxxxxxx------0-0-0----0-0-0-------------||


||--------------------------------------------------------||
||--------------------------------------------------------||
||--------------------------------------------------------||
||--------------------------------------------------------||
||--------------------------------------------------------||
||--------------------------------------------------------||
||---1-4-1----1-4-1---1-4-1----1-4--1---------------------||


||--------------------------------------------------------------------||
||--------------------------------------------------------------------||
||--------------------------------------------------------------------||
||--------------------------------------------------------------------||
||--------------------------------------------------------------------||
||----------------------------------0-0-0-----0-0-----0----0----0-----||
||-1-4-1----1-4--4*/\/\/---repeat---0-0-0-----0-0-----0----0----0-----||
Tap to rate this tab
 
# A B C D E F G H I J K L M N O P Q R S T U V W X Y Z