Guitaretab - guitar tabs
Song name
# A B C D E F G H I J K L M N O P Q R S T U V W X Y Z

Chimaira - Pure Hatred tab

Band: Chimaira
Title: Pure Hatred
Submitted By: Sqweeky
Tabbed By: severed
[ Tab from: http://www.guitaretab.com/c/chimaira/49020.html ]
------------------ or can be played -------------
------------------                  -------------
------------------                  -------------
------------------                  -------------
-1---4---5---2----                  0---3---4---1
-1---4---5---2----                  0---3---4---1
 
 
 
-------------------------------------------------------------------
-------------------------------------------------------------------
-------------------------------------------------------------------
-------------------------------------------------------------------
----1-------4--------5---------2--2--2--2--2--2--------------------
----1-------4--------5---------2--2--2--2--2--2--------------------
			p.m......................
 
 
-------------------------------------------------------------------
-------------------------------------------------------------------
-------------------------------------------------------------------
-------------------------------------------------------------------
-----------------------------2-------------------------------------
-----4b/\/\/\/\/--------------2------------------------------------
 
 
-----------------------------------------------------------------------
-----------------------------------------------------------------------
-----------------------------------------------------------------------
-------------------------------------------------------------6------6--
---1--1--1-----1--1--1------------------------------------4------4-----
---1--1--1-----1--1--1-----1-1-1-1órepeat, then--0-----0---------------
pm....................................		pm...     ...
 
back to beginning then....
 
 
-------------------------------------------------------------------
-------------------------------------------------------------------
-------------------------------------------------------------------
-------------------------------------------------------------------
-------------------------------------------------------------------
---3-3-3------4-4-4-------5-5-5--------1-1-1-----------------------
p.m.................................................
 
 
 
-------------------------------------------------------------------
-------------------------------------------------------------------
-------------------------------------------------------------------
-------------------------------------------------------------------
---0-0-0-----0-0-0-------------------------------------------------
---0-0-0-----0-0-0-----0-0-0-0-------------------------------------
p.m.................................
 
 
 
-------------------------------------------------------------------
-------------------------------------------------------------------
------------------------------------------6-------6----------------
-----5-5-5----5-5-5----5-5-5-----5-------5-------------------------
-------------------------------------------------------------------
-------------------------------------------------------------------
pm....................................      ....         
 
 
-----------------------------------------------------------------------
-----------------------------------------------------------------------
-----------------------------------------------------------------------
---------------------------------------------6--5--------------guitar 1
---5--------------5-------------------------4--3----0--0--0---0--0--0--
--------6---0-------------6----5----0--------------0--0--0---0--0--0---
					   p.m.........................
 
-----------------------------------------------------------------------
-----------------------------------------------------------------------
--7--------------7-----------------------------------------------------
-------6---0-------------6----5----0----6--5-------------------guitar 2
-------------------------------------------4--3---0--0--0---0--0--0----
---------------------------------------------------0--0--0---0--0--0---
					p.m.........................
 
in between riff
 
-------------------------------------------------------------------
-------------------------------------------------------------------
------------------------------/10----------------------------------
----8p5---9p6---10p7-----------------------------------------------
-------------------------------------------------------------------
-------------------------------------------------------------------
 
 
 
-----------------------------------------------------------------------
-----------------------------------------------------------------------
---------------------------------------------------------------guitar 1
-----------------------------------------------------------------------
-----------------------------------------------------------------------
--1-1-1-1-1-1-1-4-4-4-4-4-4-4-4-5-5-5-5-5-5-5-2-2-2-2-2-2-2------------



-----------------------------------------------------------------------
-----------------------------------------------------------------------
---------------------------------------------------------------guitar 2
--3-3-3-3-3-3-3-6-6-6-6-6-6-6-6-6-7-7-7-7-7-7-4-4-4-4-4-4-4------------
-----------------------------------------------------------------------
-----------------------------------------------------------------------
 
 
-------------------------------------------------------------------
-------------------------------------------------------------------
-------------------------------------------------------------------
-------------------------------------------------------------------
-------------------------------------------------------------------
---3-3-3---3-3-3--------/15----------------------------------------
p.m................
 
 
-------------------------------------------------------------------
-------------------------------------------------------------------
-------------------------------------------------------------------
-------------------------------------------------------------------
-------------------------------------------------------------------
--3-3-3----4-4-4----5-5-5--------/15-------------------------------
p.m..........................
Related for Pure Hatred tab