Song name
# A B C D E F G H I J K L M N O P Q R S T U V W X Y Z

Chimaira - Split tab

Intro 

All Palm Muted 

|--------|
|--------|
|--------|
|--------|
|--------|
|00--00-0|  x3

|---------------------------------|
|---------------------------------|
|---------------------------------|
|---------------------------5555--|
|--00-1p0-0-1p0-0-1p0-8p7-0-4444--|
|--00-1p0-0-1p0-0-1p0-8p7-0-------|

Bridge To Verse

|------------------------|
|------------------------|
|------------------------|
|------------------------|
|00-1p0-0-1p0-0-1p0-0-0-0|
|00-1p0-0-1p0-0-1p0-0-0-0|
                  . . . .
Verse

|----------------------------------|
|----------------------------------|
|----------------------------------|
|--7-~~~~~-007--7-~~~~-00-07-------|
|--7-~~~~~-007--7-~~~~-00-07-------|
|--7-~~~~~-007--7-~~~~-00-07-------|

And Then

|--------------------------------------------------------------------|
|--------------------------------------------------------------------|
|----------------------------------2^--------------------------------|
|--77-787-77-787---555544443333222-----77-787-77-787--7-8-7-8-77-----|
|--77-787-77-787-----------------------77-787-77-787--7-8-7-8-77-----|
|--77-787-77-787-0---------------------77-787-77-787--7-8-7-8-77-----|

Chorus

|-----------------------------|
|-----------------------------|
|-----------------------------|
|-----------------------------|(3x)
|--5h6p5-87-5-7-01-89-2-2-08--|
|--------87-5-7-01-89-2-2-08--|

|-----------------------------|
|-----------------------------|
|-----------------------------|
|-----------------------------|
|--5h6p5-87-5-7-01-89-2--0-0--|
|--------87-5-7-01-89-2--0-0--|

Then The Part Where It's All Like "EVERYTIME I TRUST YOU, I LOSE IN THE END"

|---------------------------------|
|---------------------------------|
|---------------------------------|
|---------------------------------|
|--00-1p0-0-1p0-0-1p0-0-0-0-------|
|--00-1p0-0-1p0-0-1p0-0-0-0-------|

And Then The Chorus And You're Done



Tap to rate this tab
# A B C D E F G H I J K L M N O P Q R S T U V W X Y Z