Song name
# A B C D E F G H I J K L M N O P Q R S T U V W X Y Z

Chimaira - This Present Darkness tab

Help us improve GuitareTab! Take a short survey!
Band: Chimaira
Title: This Present Darkness
Tabber: Sqweeky


h=hammer on
p=pull off


palm mute this part
||-------------------------------------------------------------------------||
||-------------------------------------------------------------------------||
||-------------------------------------------------------------------------||
||-------------------------------------------------------------------------||
||--4-3-3-3-----4-3-3-3---4-3-3-3-----4-3--1-------------------------------||
||--4-3-3-3-----4-3-3-3---4-3-3-3-----4-3--1-------------------------------||
||--4-3-3-3-----4-3-3-3---4-3-3-3-----4-3--1-------------------------------||



||-------------------------------------------------------------------------||
||-------------------------------------------------------------------------||
||-------------------------------------------------------------------------||
||-------------------------------------------------------------------------||
||--4-3-3-3-----4-3-3-3---4-3-3-3-----4-3---1-3-4--------------------------||
||--4-3-3-3-----4-3-3-3---4-3-3-3-----4-3---1-3-4--------------------------||
||--4-3-3-3-----4-3-3-3---4-3-3-3-----4-3---1-3-4--------------------------||


then same thing without palmuting

then speed it up

||------------------------------------------------------------------------||
||------------------------------------------------------------------------||
||------------------------------------------------------------------------||
||------------------------------------------------------------------------||
||-------1---4-3----------------------------------------------------------||
||-------1---4-3---------0-0-0---0-0-0---0--0-0-0---0-0-0-----------------||
||-------1---4-3---------0-0-0---0-0-0---0--0-0-0---0-0-0-----------------||



||----------------------------------------------------------------------||
||----------------------------------------------------------------------||
||----------------------------------------------------------------------||
||----------------------------------------------------------------------||
||----------------------------------------------------------------------||
||------5h7p5-----3h5p3-------------------------------------------------||
||----------------------------------------------------------------------||



||-----------------------------------------------------------------------------||
||-----------------------------------------------------------------------------||
||-----------------------------------------------------------------------------||
||-----------------------------------------------------------------------------||
||-----------------------------------------------------------------------------||
||---3---3---0-0-0-0-----3-3---4-3-3------3-3-----0-0-0-0----3-3---4--6-6------||
||---3---3---0-0-0-0-----3-3---4-3-3------3-3-----0-0-0-0----3-3---4--6-6------||

back to beginning


||-----------------------------------------------------||
||-----------------------------------------------------||
||-----------------------------------------------------||
||---------------15-------------------------19---------||
||--0-0-0----------------------------------------------||
||--0-0-0--------13-------------------------17---------||
||--0-0-0---------------repeat then--------------------||



||-----------------------------------------------------||
||-----------------------------------------------------||
||-----------------------------------------------------||
||-----------------------------------------------------||
||-----------------------------------------------------||
||------------------0---1--0----5--6--5----------------||
||-0-1--0-0---------0---1--0----5--6--5----------------||
Related for This Present Darkness tab