Song name
# A B C D E F G H I J K L M N O P Q R S T U V W X Y Z

Chimaira - Impossibility Of Reason tab

Chimaira
The Impossibility of Reason


pm:palm mute
b:bend
h:hammer on
p:pull off

Tuning:CGCFAD


Tabbed by halfstepdown88@hotmail.com

Riff A (intro)
|----------------------------------|
|----------------------------------|
|----------------------------------|
|----------------------------------|
|--6--6-6-6666--7--6-6-66-6-6------|
|--6--6-6-6666--7--6-6-66-6-6------|
      . . ....     . . .. . .

Riff B
|----------------------------------|
|----------------------------------|
|----------------------------------|
|----------------------------------|
|--7--7-7-7777--8--7-7-77-7-7------|
|--7--7-7-7777--8--7-7-77-7-7------|
      . . ....     . . .. . .

Riff C (verse)

|-----------------------------|
|-----------------------------|
|-----------------------------|
|-----------------------------|
|--6--6-6-6666--7--6-6--5h6---|
|--6--6-6-6666--7--6-6--5h6---|
      . . ....     . .

Riff D (verse)
|------------------------|
|------------------------|
|------------------------|
|------------------------|
|--7--7777--8--7-7-6h7---|
|--7--7777--8--7-7-6h7---|
      ....     . .

Riff E
|---------------------|
|---------------------|
|---------------------|
|-----7---6-----------|
|-0-0-5-0-4-0-6-7-7---|
|-0-0---0---0-6-7-7---|
  . .   .   .

Riff F
|----------------------------|
|----------------------------|
|----------------------------|
|----------------------------|
|-6--0000--6--0000--6--0000--|
|-6--0000--6--0000--6--0000--|
     ....     ....     ....

Fill 1
|-----------------|
|-----------------|
|-------------4---|
|-----4-----------|
|-5h6---6-5-4-----|
|-----------------|

Fill 2
|-----------------|this is played after
|-----------------|riff f and fill 1
|-----------------|are played 3 times.
|-------------4---|
|-5h6-5-4-3-2-----|
|-----------------|

Riff G
|-------------------------------|
|-------------------------------|
|-------------------------------|
|----------------------7--------|
|------------------3---5--------|
|--6-5-3--0--3-5-3---0----------|
                     .
Riff H
|--------------------------------|
|--------------------------------|
|------10----10/12-----12/10-----|
|------x-----x--x-------x-x------|
|-0-0--8--0--8/-10--0--10/8------|
|-0-0-----0---------0------------|
  . .     .         .

Riff I
|--------------------------------|
|--------------------------------|
|--------------------------------|
|----------------------------7---|
|-------3----3\1--------3----5---|
|-0h3h5----0------0h3p0----0-----|
           .               .

Riff J
|--------------------------------|
|--------------------------------|
|------10---10/12---12/14--------|
|------x-----x-x-----x-x---------|
|-0-0--8--0--8/10-0-10/12--------|
|-0-0-----0-------0--------------|
  . .     .       .

Solo
|------------------------------|
|----------------------8p6-----|
|--------------------------7---|
|------------3-5p3h5-----------|
|--------3-5-------------------|
|--0-3-5-----------------------|

-------9------------------------------------------------|
-8b(9)---(9)r8-5-7-5h6p5--------------------------------|
-------------------------7--5---------------------------|
------------------------------8-7-5----7b(8)-7----------|
------------------------------------8-----------5-7-8---|
--------------------------------------------------------|

                                t          t
----10-12-12h13p12�10p8h10---|-13p10p8h10h13p10p8---|
-10--------------------------|-----------------------------|
-----------------------------|-----------------------------|
-----------------------------|-----------------------------|
-----------------------------|-----------------------------|
-----------------------------|-----------------------------|
                              Repeat the tapping as many
                              times as needed. Its
                              Something like this.

----------12p10h12--16b(17)-16b(17)r16-16-16b(17)r16-----|
---------------------------------------------------------|
-10p9p7v-------------------------------------------------|
---------------------------------------------------------|
---------------------------------------------------------|
---------------------------------------------------------|

-13----------12b(13)-13------------------------------------|
----15-13---------------10(11)r10-----------11-10----------|
----------13--------------------------10-12-------12p10----|
-----------------------------------12-------------------12-|
-----------------------------------------------------------|
-----------------------------------------------------------|

--------21----------22-24-20------------|
-22b(23)�(23)r22-20--------------|
----------------------------------------|
----------------------------------------|
----------------------------------------|
----------------------------------------|

-----------------------------------------------------------|
-6/8-8\6-6/11-11\9-9\8-8/13-13\11-11\9-9\8-8--8/13---13/15-|
-----------------------------------------------------------|
-----------------------------------------------------------|
-----------------------------------------------------------|
-----------------------------------------------------------|
Tap to rate this tab
# A B C D E F G H I J K L M N O P Q R S T U V W X Y Z